Starting Line - Left Coast Envy Chords & Tabs

 

Left Coast Envy Chords & Tabs

Starting Line Chords & Tabs

Version: 4 Type: Tab

Left Coast Envy Tab

Left Coast Envy
The Starting Line
Say It Like You Mean It


I don't have the rest of the song, but the other tab for this part of the intro on this 
is absolutely terrible.
[ Tab from: http://www.guitartabs.cc/tabs/s/starting_line/left_coast_envy_tab_ver_4.html ]
e|-------------------------------------------------------------------------|
b|-------------------------------------------------------------------------|
g|-----9--------9---------9p8-9p8-9p8-------9-------9---------11p9-9p8-8h9-|
d|--9-9----9-9-9----9-9-9---------------9-9----9-9-9----9-9-9--------------|
a|-------------------------------------------------------------------------|
E|-------------------------------------------------------------------------|


e|-------------------------------------------------------------------------|
b|-------------------------------------------------------------------------|
g|-----9--------9---------9p8-9p8-9p8-------9--------9-----11-x-9-8-9------|
d|--9-9----9-9-9----9-9-9----------------9-9----9-9-9----9--9-x-9-9-9------|
a|-------------------------------------------------------------------------|
E|-------------------------------------------------------------------------|

If you find a better way to play it or have any problems with it let me know at: re17ss@yahoo.com

Thanks