Starting Line - Leaving Chords & Tabs

 

Leaving Chords & Tabs

Starting Line Chords & Tabs

Version: 1 Type: Tab 0 ratings
1 star 2 stars 3 stars 4 stars 5 stars
comments

Leaving Tab

AlRIHT THIS IS THE PART THAT I COULD'NT FIGURE OUT IN THE LAST TAB I DID FOR THIS SONG:

THE RYTHM FOR THE CHORUS IS: B5, F#5, G#5, E5 (APPR. 8X EACH)

HER IS THE LEAD PART THAT THEY PLAY THE 2ND TIME AROUND DURING EACH CHORUS:
the hammer on from 4 to 6 on the G string is optional.
[ Tab from: http://www.guitartabs.cc/tabs/s/starting_line/leaving_tab.html ]
e-----------------------------------------------------------
B-12-12-12-11-11-9-9-9-9-7-7-7-7-9-7-5----------------------
G-------------------------------------4-4h6-4-4-4-4-3-4-6-4-
D-----------------------------------------------------------
A-----------------------------------------------------------
E-----------------------------------------------------------

the rythm for the bridge is: G#5, E5, F#5 (MATCH THE RYTHM TO THE ACOUSTIC CUT OFF PART)
(YOU PLAY G#5 TWICE AS MANY TIMES AS YOU PLAY THE OTHER 2 CHORDS)

HERE IS THE LEAD PART IN THE BRIDGE:

e-----------------------------------------------------------
B-------7-------------------7----7-5-4-5-4------------------
G-4-6-4--4-----4----6--4-6-4--4------------6----------------
D----------4--6-4-6-----------------------------------------
A-----------------------------------------------------------
E-----------------------------------------------------------

TABBED BY: STEPHEN BURN
Comments