Starting Line - Lasting Impression Chords & Tabs

 

Lasting Impression Chords & Tabs

Starting Line Chords & Tabs

Version: 3 Type: Tab 0 ratings
1 star 2 stars 3 stars 4 stars 5 stars
comments

Lasting Impression Tab

-------------------------------------------------------------------------------
			     Lasting impression- The starting line
-------------------------------------------------------------------------------
Tabbed by:Shelby
Email: flypimp3298@hotmail.com

Tuning:standard
Intro:
Guitar one
e|------------------11------------11-------------------------------------------|
B|------12-------------12----12-----12---A Bunch OF Times ---------------------|
G|---11---11--------------11---------------------------------------------------|
D|-----------------------------------------------------------------------------|
A|-------------this basically repeats through out the whole song---------------|
E|-----------------------------------------------------------------------------|
Guitar Two
e|-----------------11-------------11-----------------------------------------11-----11--------11--|
B|--------------------12-----12-----12----then between verses---------------------12--------------|
G|------------------------11----------------------------------------------11----11---------11-----|
D|----11h13-11------------------------------------------------------------------------------------|
A|------------------------------------------------------------------------------------------------|
E|------------------------------------------------------------------------------------------------|
[ Tab from: http://www.guitartabs.cc/tabs/s/starting_line/lasting_impression_tab_ver_3.html ]
Verse: not totally exact
e|-----------------------------------------------------------------------------|
B|---000000000----000000000----------------------------------------------------|
G|---000000000----000000000-------999999999999---------------------------------|
D|---666666666----444444444-------999999999999---------------------------------|
A|---666666666----444444444-------666666777777---------------------------------|
E|---444444444----222222222----------------000000------------------------------|

Chorus: figure out strumming
e|----- 0000----0000-------------------------------------------------------|
B|-----0000----4444--------------------------------------------------------|
G|-----4444----4444--------------------------------------------------------|
D|-----4444----2222----6666------------444-666-222-------------------------|
A|-----2222----2222----6666------------444-666-222-------------------------|
E|-------------------------4444----then---222-444-000----------------------|
 Bridge:
e|---------------------------------------------------------------------------|
B|---------------------------------------------------------------------------|
G|------------------444------------------------------------------------------|
D|----66666666--444---2~-----------------------------------------------------|
A|----66666666--222---2~-----------------------------------------------------|
E|----44444444----------0~---It Varies every time----------------------------|
Comments