Starting Line - Lasting Impression Chords & Tabs

 

Lasting Impression Chords & Tabs

Starting Line Chords & Tabs

Version: 2 Type: Tab 0 ratings
1 star 2 stars 3 stars 4 stars 5 stars
comments

Lasting Impression Tab

-------------------------------------------------------------------------------
			     Lasting impression- The starting line
-------------------------------------------------------------------------------
Tabbed by:Shelby		
Email: flypimp3298@hotmail.com
[ Tab from: http://www.guitartabs.cc/tabs/s/starting_line/lasting_impression_tab_ver_2.html ]
Tuning:standard
Intro:
e|--------------11----------11--------------------------------|
B|-----12----------12----12----12---A Bunch OF Times ---------|
G|---11--11-----------11--------------------------------------|
D|------------------------------------------------------------|
A|------------------------------------------------------------|
E|------------------------------------------------------------|
Verse: figure out strumming
e|--------------------------------------|
B|--------------------------------------|
G|---------------------999999-----------|
D|---6666----4444------999999-----------|
A|---6666----4444------666777-----------|
E|---4444----2222-----------------------|	
Chorus: figure out strumming
e|------------------------------------------------|
B|------------------------------------------------|
G|-----4----4-------------------------------------|
D|-----4----2----6------------444-666-222---------|
A|-----2----2----6------------444-666-222---------|
E|---------------4-----then---222-444-000---------|

that's all I have now, I will have second guitar and everything else later.
Comments