Starting Line - Lasting Impression Chords & Tabs

 

Lasting Impression Chords & Tabs

Starting Line Chords & Tabs

Version: 1 Type: Tab 0 ratings
1 star 2 stars 3 stars 4 stars 5 stars
comments

Lasting Impression Tab

-----------------------------------------------------------------------------
	             LASTING IMPRESSION - The Starting Line
-----------------------------------------------------------------------------
Tabbed by:
Email:

Tuning:Standard

e|----------11------------11----------11----|
B|-------------12-------12--12------12--12--|
G|-------11----------11-----------11--------|*Just play this until the second
D|-11h13----------13------------13----------|*part of the verse
A|------------------------------------------|
E|------------------------------------------|
[ Tab from: http://www.guitartabs.cc/tabs/s/starting_line/lasting_impression_tab.html ]
e|------------------------------------|
B|------4444--------------------------|
G|-4444-4444--------------------------|
D|-4444-2222-4444-2222----------------|
A|-2222-2222-4444-2222----------------|
E|-0000-0000-2222-0000----------------|

e|-11----11-----------|
B|-12----12-----------|
G|-11----11-----------|
D|-13----11-----------|
A|--------------------|
E|--------------------|

  "I'll make all lasting impressions.."
e|--------------------------------------------------------|
B|------4444--------------------4444----------------------|
G|-4444-4444---------------4444-4444----------------------|
D|-4444-2222--666-444-222--4444-2222--666-444-444-222-----|
A|-2222-2222--666-444-222--2222-2222--666-222-444-222-----|
E|-0000-0000--444-222-000--0000-0000--444-444-222-000-----|


Well this is the basis of the tab. I know its not exactly what it is. But I just
wanted to get something down for it because its a great song. So hear it is,
maybe somebody else out there can figure the whole thing out. But as of now this
is what I have. So enjoy.
Comments