Starting Line - Im Real Chords & Tabs

 

Im Real Chords & Tabs

Starting Line Chords & Tabs

Version: 3 Type: Tab 0 ratings
1 star 2 stars 3 stars 4 stars 5 stars
comments

Im Real Tab

   
tabbed by: tessa reyes
email: nofxchick934@hotmail.com

the other tabs for this song are crap. so here's a correct one.

tuning: standard eBGDAE


Intro:
e|--------------------0-------------------------|
B|----------------1--------------1--------------|
G|--------0------------------0------------------|
D|-------------33---3---------------------------|
A|----3-------------------33---3------35----35--|
E|-55---5--------------------------55----55-----|

then:
"What's my name..."
    A  F  C  G
e|--------------|
B|--------------|
G|--------5-----|
D|--7--3--5--5--|
A|--7--3--3--5--|
E|--5--1-----3--|

[ Tab from: http://www.guitartabs.cc/tabs/s/starting_line/im_real_tab_ver_3.html ]
Verse:
"I've met so many men..."
    F  A
e|--------|
B|--------|
G|--------|
D|--3--7--|
A|--3--7--|
E|--1--5--|


Pre-Chorus:
"Tired of being alone..."
    C  F  C  A  G
e|-----------------|
B|-----------------|
G|--5-----5--------|
D|--5--3--5--7--5--|
A|--3--3--3--7--5--|
E|-----1-----5--3--|


Chorus:
"Cause I'm real..."
    C  F  G  A
e|--------------|
B|--------------|
G|--5-----------|
D|--5--3--5--7--|
A|--3--3--5--7--|
E|-----1--3--5--|


the little octave thing where they're singing "and i can't go on without you" is
e|------|
B|------|
G|---9--|
D|---x--|
A|--11--|
E|------|


and the little riffy during the chorus i have no idea how to play.


enjoy!!
Comments