Starting Line - Im Real Chords & Tabs

 

Im Real Chords & Tabs

Starting Line Chords & Tabs

Version: 2 Type: Tab 0 ratings
1 star 2 stars 3 stars 4 stars 5 stars
comments

Im Real Tab

Intro
e |------------------------0-----------------------------
b |--------------------1----------------1----------------
g |---------0-----------------------0--------------------
d |-----------------33--3--------------------------------
a |------3-----------------------33--3--------34-----34--
E |---55--5-------------------------------44-----44------

After Intro
e |----------------------------
b |----------------------------
g |------5---------------------
d |------5-----3-----5-----7---
a |------3-----3-----5-----7---
E | ------------1-----3-----5--

Verse
e |----------------------------
b |----------------------------
g |---xx-5---------------------
d |---xx-5--xx-3---------------
a |---xx-3--xx-3---------------
E | ---------xx-1--------------

Chorus
e |----------------------------
b |----------------------------
g |------5---------------------
d |------5-----3-----5-----7---
a |------3-----3-----5-----7---
E | ------------1-----3-----5--

Verse2
e |-------------------------------
b |-------------------------------
g |---xx-5-----------------5------
d |---xx-5--xx-3----------5--3----
a |---xx-3--xx-3----------3--3----
E | ---------xx-1--------------1--
[ Tab from: http://www.guitartabs.cc/tabs/s/starting_line/im_real_tab_ver_2.html ]
Chorus
e |-----------------------------
b |-----------------------------
g |------5----------------------
d |------5-----3-----5-----7----
a |------3-----3-----5-----7----
E | ------------1-----3-----5---

Verse3
e |---------------------------
b |---------------------------
g |---5~~~~~~~~~~~------------
d |---5~~~~~~~~~~~------------
a |---3~~~~~~~~~~~--------2x--
E | --------------------------
   then...
e |-------------------------------
b |-------------------------------
g |---xx-5-----------------5------
d |---xx-5--xx-3----------5--3----
a |---xx-3--xx-3----------3--3----
E | ---------xx-1--------------1--

Chorus
e |-----------------------------
b |-----------------------------
g |------5----------------------
d |------5-----3-----5-----7----
a |------3-----3-----5-----7----
E | ------------1-----3-----5---

Outtro
e |------------------------0-------------------------------
b |--------------------1----------------1------------------
g |---------0-----------------------0----------------------
d |-----------------33--3----------------------------------
a |------3-----------------------33--3--------34-----34~~~~
E |---55--5-------------------------------44-----44--------
Comments