Starting Line - Im Real Chords & Tabs

 

Im Real Chords & Tabs

Starting Line Chords & Tabs

Version: 1 Type: Bass Tab

Im Real Bass Tab

The Starting Line
“I’m Real”
Punk Goes Pop
Tabbed By PAT-57R of Traffic

Tabbed by ear. This is the closet verson so far. ENJOY.
For my SAC ppl out there!!!

Intro (4x):
G-------------------------------------------------------------|
D-------------------------------------------------------------|
A------------------------3-3-3-3------------------------------|
E--5-5-5-5----1-1-1-1---------------3-3-3-3-------------------|

Verse (4x):
G-------------------------------------------------------------|
D-------------------------------------------------------------|
A-------------------------------------------------------------|
E-1-1-1-----5-5-5---------------------------------------------|


Pre-Chorus (2x):
G-------------------------------------------------------------|
D-------------------------------------------------------------|
A-3-3-3-------------------------------------------------------|
E---------------1-1-1-----------------------------------------|
[ Tab from: http://www.guitartabs.cc/tabs/s/starting_line/im_real_btab.html ]
Chorus (5x):
G-------------------------------------------------------------|
D-------------------------------------------------------------|
A-3-3-3-3-----------------------------------------------------|
E-----------1-1-1-1----3-3-3-3-----5-5-5-5--------------------|

Verse 2 (2x):
G-------------------------------------------------------------|
D-------------------------------------------------------------|
A-------------------------------------------------------------|
E-1-1----5—1-1----5-1-1-1-1-1-1-------------------------------|


Bridge (4x):
G-------------------------------------------------------------|
D-------------------------------------------------------------|
A-------------------------------------------------------------|
E-1-1-1-----5-5-5---------------------------------------------|

Ending (1x):
G-------------------------------------------------------------|
D-------------------------------------------------------------|
A-3-3-3-------------------------------------------------------|
E-------------------------------------------------------------|

Order:
Intro x4
Verse x4
Pre-Chorus x2
Chorus x5
Verse x3
Verse 2 x2
Verse x1
Chorus x5
Bridge x4
Pre-Chorus x2
Chorus x7
Ending x1