Starting Line - Hello Houston Chords & Tabs

 

Hello Houston Chords & Tabs

Starting Line Chords & Tabs

Version: 3 Type: Tab 0 ratings
1 star 2 stars 3 stars 4 stars 5 stars
comments

Hello Houston Tab

Tabbed by Collin
theres a lot of tabs out there that are wrong so heres my spin on things


Intro
|----------------------------------------------------------------------|
|----------------------------------------------------------------------|
|44444----------------------------------------------------------------4|
|44444----------------------------------------------------------------4|
|22222----------------------------------------------------------------2|
|----------------------------------------------------------------------|
    *let ring                                                         *ring
         "Lead on to keep a feeling strong and make me still beleive..."
Pre Verse
|-------------------------------------------------------|
|-------------------------------------------------------|
|4-4-4-4-------------------------6-6-6-6-6-6-8-9-9-9-9-9|
|4-4-4-4-2-2-2-2-4-4-4-4-6-6-6-6-6-6-6-6-6-6-8-9-9-9-9-9|
|2-2-2-2-2-2-2-2-4-4-4-4-6-6-6-6-4-4-4-4-4-4-6-7-7-7-7-7|
|--------0-0-0-0-2-2-2-2-4-4-4-4------------------------|



|----------------------------------------|
|----------------------------------------|
|4-4-4-4-------------------------6-8-9-11|
|4-4-4-4-2-2-2-2-4-4-4-4-6-6-6-6-6-8-9-11|
|2-2-2-2-2-2-2-2-4-4-4-4-6-6-6-6-4-6-7--9|
|--------0-0-0-0-2-2-2-2-4-4-4-4---------|

Verse
|--------------------------------------|
|--------------------------------------|
|4--------------------------------4-4-4|
|4--------------------------------4-4-4|
|2--------------------------------2-2-2|
|--------------------------------------|
                                      *ring
"You say if...         might be changed"

[ Tab from: http://www.guitartabs.cc/tabs/s/starting_line/hello_houston_tab_ver_3.html ]
|-----------------------------------------|
|-----------------------------------------|
|4--4--------------------4--4-------------|
|4--4--2--2--6--6--4--4--4--4--4--4--2---2|
|2--2--2--2--6--6--4--4--2--2--4--4--2---2|
|------0--0--4--4--2--2--------2--2--0---0|
"speak to me what can I say..."


Chorus
|---------------------------------------------------------------|
|---------------------------------------------------------------|
|4-4-4-4-4-4-4-4-4-4-4-4-4-4-4-4-6-6-6-6-6-6-6-6-6-6-6-6-6-6-6-6|
|4-4-4-4-4-4-4-4-4-4-4-4-4-4-4-4-6-6-6-6-6-6-6-6-6-6-6-6-6-6-6-6|
|2-2-2-2-2-2-2-2-2-2-2-2-2-2-2-2-4-4-4-4-4-4-4-4-4-4-4-4-4-4-4-4|
|---------------------------------------------------------------|


|------------------------------------------|
|------------------------------------------|
|------------------------------------------|
|6-6-6-6-6-6-6-6-6-6-6-6-6-6-6-6----2--6--4|
|6-6-6-6-6-6-6-6-6-6-6-6-6-6-6-6----2--6--4|
|4-4-4-4-4-4-4-4-4-4-4-4-4-4-4-4----0--4--2|


Bridge
|--------------------------------------------------------------------|
|--------------------------------------------------------------------|
|--------------------------------------------------------------------|
|--9-9---9-8/9--9-----11--9-9/8--9---------------2-6-4-6-2-6-44444444|
|------------------------------------------------2-6-4-6-2-6-44444444|
|------------------------------------------------0-4-2-4-0-4-22222222|


Outro
|---------------|
|---------------|
|---------------|    *strumming pattern not shown
|---2------6---4|
|---2------6---4|
|---0------4---2|
   "let me let go"

Order:

Intro
Pre Verse
Verse
Chorus
Pre Verse
Verse
Bridge
Chorus
Outro
Chorus
Comments