Starting Line - Hello Houston Chords & Tabs

 

Hello Houston Chords & Tabs

Starting Line Chords & Tabs

Version: 2 Type: Tab 0 ratings
1 star 2 stars 3 stars 4 stars 5 stars
comments

Hello Houston Tab

lead comin soon!!!

    Intro
e|-------------|------------|
b|-------------|------------|
g|-------------|------------|
d|-9-9-9-9-9---|-9----------|
a|-9-9-9-9-9---|-9----------|
E|-7-7-7-7-7---|-7----------|

Main Riff
e|--------------------------------|
b|--------------------------------|
g|-4-6----------------------------|
d|-4-6-6-2------------------------|
a|-2-4-6-2------------------------|
E|-----4-0------------------------|

Verse      . . . .
e|-------|-------------------|
b|-------|-------------------|
g|-4-4-4-|-4-6---------------|
d|-4-4-4-|-4-6-6-2-----------|
a|-2-2-2-|-2-4-6-2-----------|
E|-------|-----4-0-----------|(last time play open)
[ Tab from: http://www.guitartabs.cc/tabs/s/starting_line/hello_houston_tab_ver_2.html ]
Chorus
e|-----------------------------|
b|-----------------------------|
g|-4-6-------------------------|
d|-4-6-6-2-6-4-----------------|
a|-2-4-6-2-6-4-----------------|
E|-----4-0-4-2-----------------|

Verse 2
   . . . . . .
e|-------------------------------|
b|-------------------------------|
g|-4-6-----4-6-------------------|
d|-4-6-6-2-4-6-2-6-4-6-2-6-0-----|
a|-2-4-6-2-2-4-2-6-4-6-2-6-0-----|
E|-----4-0-----0-4-2-4-0-4-2-----|

Break
Chorus
e|--------------------------------|
b|--------------------------------|
g|--------------------------------|
d|-2-6-4--------------------------|
a|-2-6-4--------------------------|
E|-0-4-2--------------------------|

Chorus x2
Comments