Starting Line - Given A Chance Chords & Tabs

 

Given A Chance Chords & Tabs

Starting Line Chords & Tabs

Version: 2 Type: Tab 0 ratings
1 star 2 stars 3 stars 4 stars 5 stars
comments

Given A Chance Tab

   
I also did a bass tab for this song

Intro 1
Guitar 2
e------------------    
B------------------
G-4-4-4444-4-4-4444
D-4-4-4444-4-4-4444
A-2-2-2222-2-2-2222
E------------------

Intro 2 
Guitar 1
e------------------------------------------------------------------------------
B------------------------------------------------------------------------------
G-11-11-11-131313-9-9-9-11-11-11-8-8-8-999-6-6-6666-8-8-8--8444--4111111-11666-
D-11-11-11-131313-9-9-9-11-11-11-8-8-8-999-6-6-6666-8-8-8--8444--4111111-11666-
A-9--9--9--111111-7-7-7-9--9--9--6-6-6-777-4-4-4444-6-6-6--6222--29-9-9--9-444-
E------------------------------------------------------------------------------

Guitar 2
e----------------------------------------------------------------
B----------------------------------------------------------------
G-4-4-4444-9-9-9999-4-4-4444-11-11-11111111-------------444-4----
D-4-4-4444-9-9-9999-4-4-4444-11-11-11111111-666--6222--2444-4444-
A-2-2-2222-7-7-7777-2-2-2222-9--9--9-9-9-9--666--6222--2222-2444-
E-------------------------------------------444--4000--0-----222-

Verse 1 (part 1)
Guitar 1 and 2
e-----------------
B-----------------
G-----------------
D-2---666--2---444
A-2---666--2---444
E-0---444--0---222
      ...      ...

Verse 1 (part 2)
Guitar 1 and 2
e-------------
B-------------
G-------------
D-222--666-444
A-222--666-444
E-000--444-222
  ...  ... ...

Verse 1 (part 2)Guitar 2
Just play around with a b note and a wah wah pedal

Chorus
Guitar 1
e-------------------------------------------------------
B-------------------------------------------------------
G-11111111s13-9999s11-8888s9-6666-888-8444-411111-11666-
D-11111111s13-9999s11-8888s9-6666-888-8444-411111-11666-
A-9-9-9-9-s11-7777s9--6666s7-4444-666-6222-29-9-9--9444-
E-------------------------------------------------------
[ Tab from: http://www.guitartabs.cc/tabs/s/starting_line/given_a_chance_tab_ver_2.html ]
Guitar 2 
e----------------------------------------------------------
B----------------------------------------------------------
G-4-4-4-4-9-9-9-9-4-4-4-4-11-11-11-11-------------444-4----
D-4-4-4-4-9-9-9-9-4-4-4-4-11-11-11-11-666--6222--2444-4444-
A-2-2-2-2-7-7-7-7-2-2-2-2-9--9--9--9--666--6222--2222-2444-
E-------------------------------------444--4000--0-----222-

Verse 2 (part 1)
Guitar 1 and 2     
e-----------------
B-----------------
G-----------------
D-2---666--2---444
A-2---666--2---444
E-0---444--0---222
      ...      ...

Verse 2 (part 2)
Guitar 1 (maybe 2 as well, if you want)
e--------------------------------------------
B--------------------------------------------
G-44444444-99999999-44444444-1111111111111111
D-44444444-99999999-44444444-1111111111111111
A-22222222-77777777-22222222-9-9-9-9-9-9-9-9-
E--------------------------------------------

instead of playing the last chord a second time, play this kinda fast, if you
listen to the song you'll know what im talking about 
e----------
B----------
G-1111-1111
D-1111-1111
A-9-9--9-9-
E----------

Bridge 1
Either Guitar (clean)
e-----------------
B-----------------
G-----------------
D-----------------
A----2-----2----2-     -this note migh be 4 on the g string
E-00----44---22---

Bridge 2
Guitar 1
e-------------
B-------------
G-------------
D-222--666-444
A-222--666-444
E-000--444-222
  ..   ..  ..

Bridge 3
Guitar 1 (meanwhile guitar 2 is playing a b with flange)
e-------
B-------
G-------
D-2--6-4
A-2--6-4
E-0--4-2

For the very last chorus you play the part where the chords ring twice.
Once again im sure you'll know what im talking about when you hear it

Outro (both guitars)
e----------
B----------
G-8-8-88888
D-8-8-88888
A-6-6-66666
E----------

Order:
Intro 1__________x2
Intro 2----------x2
Verse 1 Part 1___x2
Verse 1 Part 2---x4
Intro 1__________x1
Chorus-----------x2
Verse 2 Part 1___x2
Verse 2 Part 2---x2
Chorus___________x2
Bridge 1---------x4
Bridge 2_________x4
Bridge 3---------x4
Intro 1__________x2
Chorus-----------x2 
Outro____________x1
 
thats all.
Comments