Starting Line - Forever In A Day Chords & Tabs

 

Forever In A Day Chords & Tabs

Starting Line Chords & Tabs

Version: 1 Type: Tab 0 ratings
1 star 2 stars 3 stars 4 stars 5 stars
comments

Forever In A Day Tab

Starting Line - Forever in a Day 
By:Andrew Mcshan (Guitarguyx182@aol.com)

Intro
e|-10-----------------------------------------------------------------------|
B|---10--8-7--7-------------------------------------------------------------|
G|-----------7--------------------------------------------------------------|
D|--------------------------------------------------------------------------|
A|--------------------------------------------------------------------------|
E|--------------------------------------------------------------------------|
[ Tab from: http://www.guitartabs.cc/tabs/s/starting_line/forever_in_a_day_tab.html ]
e|--------------------------------------------------------------------------|
B|--------------------------------------------------------------------------|
G|--------------7-9-7-12-11-14-12-11-12--11-7-9-----------------------------|
D|-12-7-10-5-x4-x-x-x-x--x--x--x--x--x---x--x-x-----------------------------|
A|-12-7-10-5----5-7-5-10-9--12-10-9--10--9--5-7-----------------------------|
E|-10-5-8--3----------------------------------------------------------------|
Verse
e|--------------------------------------------------------------------------|
B|--------------------------------------------------------------------------|
G|----9/7-------------------------------------------------------------------|
D|-12-9/7-7-10-5------------------------------------------------------------|
A|-12-7/5-7-10-5------------------------------------------------------------|
E|-10-----5-8--3------------------------------------------------------------|
Chorus
e|--------------------------------------------------------------------------|
B|--------------------------------------------------------------------------|
G|--------7-7-----------10--7-8-7-------------------------------------------|
D|-5-12-7-7-7-5-12-7--------------------------------------------------------|
A|-5-12-7-5-5-5-12-7--------------------------------------------------------|
E|-3-10-5-----3-10-5--------------------------------------------------------|
Bridge
e|--------------------------------------------------------------------------|
B|--------------------------------------------------------------------------|
G|--------------------------------------------------------------------------|
D|-2--5--9-5--2-5--9-5------------------------------------------------------|
A|-2--5--9-5--2-5--9-5------------------------------------------------------|
E|-0--3--7-3--0-3--7-3------------------------------------------------------|
Comments