Starting Line - Drama Summer Chords & Tabs

 

Drama Summer Chords & Tabs

Starting Line Chords & Tabs

Version: 3 Type: Tab 0 ratings
1 star 2 stars 3 stars 4 stars 5 stars
comments

Drama Summer Tab

*******************************
The Starting Line: Drama Summer
****************************
Intro:
e|----------------------------------------------------------|
B|----------------------------------------------------------|
G|---7----------7----------7----------7----------7----------|
D|---7----------7----------5----------7----------5----------|
A|---5----------5----------5----------5----------5----------|
E|---0----------5---------(3)---------7---------------------|


Verse 1:
e|----------------------------------------------------------|
B|----------------------------------------------------------|
G|---7----------7----------7----------7---------------------|
D|---7----------5----------7----------7---------------------|
A|---5----------5----------5----------5---------------------|
E|-------------------------7----------5---------------------|
        \"We can wait...\"

e|----------------------------------------------------------|
B|----------------------------------------------------------|
G|---7----------7----------7----------7-7-7-----------------|
D|---7----------5----------7----------7-7-5-----------------|
A|---5----------5----------5----------5-5-5-----------------|
E|-------------------------7----------0-5-3-----------------|
       \"My eyes...\"                  \"Dizzy with sunstroke...\"


Chorus:
e|----------------------------------------------------------|
B|----------------------------------------------------------|
G|---7----------7----------7----------7---------------------|
D|---7----------5----------7----------7---------------------|
A|---5----------5----------5----------5---------------------|
E|------------------------------------7---------------------|
                    \"I\'ll be there...\"
[ Tab from: http://www.guitartabs.cc/tabs/s/starting_line/drama_summer_tab_ver_3.html ]
e|----------------------------------------------------------|
B|----------------------------------------------------------|
G|---7----------7----------7-----------7-----7-----7---7-77-|
D|---7----------5----------7-----------7-----7-----5---5-55-|
A|---5----------5----------5-----------5-----5-----5---5-55-|
E|---0----------3----------5-----------7-----5-----3---3-33-|
   \"Try to look...\"	            \"Pick up...\"

Verse 2:
e|----------------------------------------------------------|
B|----------------------------------------------------------|
G|---7----------7----------7----------7-7-7-----------------|
D|---7----------5----------7----------7-7-5-----------------|
A|---5----------5----------5----------5-5-5-----------------|
E|-------------------------7----------0-5-3-----------------|
         \"Cross your...\"              \"Painting the town...\"


Bridge:
e|----------------------------------------------------------|
B|------7-----7-----7--7------------------------------------|
G|-----7-7---7-7---7-7--7--7-777----------------------------|
D|----5---5-5---5-5---5--5-7-777----------------------------|
A|---5-----5-----5---------5-555----------------------------|
E|----------------------------------------------------------|

Outro:
e|----------------------------------------------------------|
B|----------------------------------------------------------|
G|---7----------7----------7----------7---------------------|
D|---7----------7----------7----------5---------------------|
A|---5----------7----------5----------5---------------------|
E|--------------0----------7----------3---------------------| x4
         \"Guess I\'ll call...\"

e|----------------------------------------------------------|
B|----------------------------------------------------------|
G|---7----------7----------7----------7----------7-7-7------|
D|---7----------7----------7----------5----------7-7-5------|
A|---5----------7----------5----------5----------5-5-5------|
E|--------------0----------7----------3----------7-5-3------| x4
          \"I\'ll call or see you...\"
Comments