Starting Line - Drama Summer Chords & Tabs

 

Drama Summer Chords & Tabs

Starting Line Chords & Tabs

Version: 2 Type: Tab 0 ratings
1 star 2 stars 3 stars 4 stars 5 stars
comments

Drama Summer Tab

   
This song sounds best with 2 guitars. I think its right.
The Second guitar may sound strange but with the
1st guitar it sounds ok.

Intro

                 h=hammer on    p=pull off   +=1 octave higher
1st Guitar
e-------------------------------------------------
B---------------------------------------7-----7---
G--------------------------------------7-7---7-7--
D----------------------7--5--4--5--7--5-----5-----
A--5--2----5--2-----------------------------------
E----------------3--5-----------------------------

e--------------------------------
B---7-7h8p7-7--7--7-7h8p7-7--7---
G--7----------7--7----------7-7-- Let last note ring
D--------------------------------
A--------------------------------
E--------------------------------

[ Tab from: http://www.guitartabs.cc/tabs/s/starting_line/drama_summer_tab_ver_2.html ]
2nd Guitar-strumming
e--x----------x----------x----------x-----x-xx---
B--x----------x----------x----------x-----x-xx---
G--x----------x----------x----------x-----x-xx--- 2nd guitar
D--x----------x----------x----------x-----x-xx--- plays chords
A--5----------5----------5----------5-----5-55---
E--0----------5----------3----------0-----3-33---

Chords
D  G  B  A   we can wait...
D  G  B      my eyes roll...
Em A  G      dizzy with sunstroke...
Em+   
G  D         Ill be there...
B  A  G  D   Try 2 identify...
B  A  G  G   Ill pick up...
D  G  B      Cross your...
Em A  G      Painting the town...
   *FILL* 

1st Guitar-FILL
e--------------------------77x---
B-----7-----7-----7---7----77X---
G----7-7---7-7---7-7---7---77X---
D---7---7-7---7-7---7---7--------
A--5-----5-----5-----------------
E--------------------------------


D  Em+ B  G  (X4)
D  D  Em+ G  B  G (X2)
B  D B A G

2nd Guitar- Last chord
e---X----
B---8----
G---7----
D---7----
A---5----
E---X----
Comments