Starting Line - Decisions Decisions Chords & Tabs

 

Decisions Decisions Chords & Tabs

Starting Line Chords & Tabs

Version: 2 Type: Bass Tab 0 ratings
1 star 2 stars 3 stars 4 stars 5 stars
comments

Decisions Decisions Bass Tab

The starting Line
Song: Decisions, Decisions
Tabbed By : Niko Tucker
e-mail: Hilikus486@aol.com
comments: i hate this band but i thought i should  tab it for all you fags cause it has 
decent bass line
Tuning:EADG
Intro:
G|------7-----7-----7---------------|
D|---55-------------------5---------|x2
A|---------55----77----33-----------|
E|----------------------------------|
[ Tab from: http://www.guitartabs.cc/tabs/s/starting_line/decisions_decisions_btab_ver_2.html ]
G|---------------7-----7------------|x2-----------|
D|----------------------------5-----|-----5---5---|
A|------------55----77----33--------|--33---33----|
E|---3/7\33-------------------------|-------------|
  i can't wait for this to end...
G|----------------------------------|x4
D|----------------------------------|
A|---------55-----77-----33---------|
E|---33-----------------------------|
  main riff:
G|----------------------------------|
D|----------------------------------|
A|---------5555---7777---33-3-33-3--|
E|---33-3---------------------------|
  he loves you...
G|----------------------------------------------------------------------------|
D|----------------------------------------------------------------------------|
A|---------------33333333-----------------------------------------------------|
E|---33----00-----------------------------------------------------------------|
  solo:
G|-----------------------------------------------5---------|listen to song
D|-----------------------------------------------5---------|for the right
A|-------------5555555555----77777---5555--3333-33---------|count
E|---33333333----------------------------------3-----------|
Comments