Starting Line - Best Of Me Chords & Tabs

 

Best Of Me Chords & Tabs

Starting Line Chords & Tabs

Version: 2 Type: Tab 0 ratings
1 star 2 stars 3 stars 4 stars 5 stars
comments

Best Of Me Tab

   
So tell me what you thought about when you were gone and, so alone

E--------------------------------------0--------0---------0---0----|
A--------------------------------------7--------0---------2---4----|
D--------------------------------------9--------2---------4---2----|
G--------------------------------------9--------2---------4---4----|
B------------------------------------------------------------------|
e------------------------------------------------------------------|

the worst is over, you can have the best of me

E---0--------------0----------------0-------0-|
A---0--------------4----------------2-------2-|
D---2--------------2----------------4-------2-|
G---4--------------4----------------4-------4-|
B---------------------------------------------|
e---------------------------------------------|
[ Tab from: http://www.guitartabs.cc/tabs/s/starting_line/best_of_me_tab_ver_2.html ]
  we got older, but we're still young

E-0------0----------0-----------0-----|
A-2------0----------2-----------4-----|
D-2------2----------4-----------2-----|
G--------4----------4-----------4-----|
B-------------------------------------|
e-------------------------------------|

  we never grew out of this feeling that we won't give up

E-0-------------------------0---------------0----------0-| let this ring
A-0-------------------------4---------------2----------0-|
D-2-------------------------2---------------4----------2-|
G-4-------------------------4---------------4----------2-|
B------------------------------------------------------0-|
e--------------------------------------------------------|

E-0-0-0-| let this ring
A-0-0-0-|
D-2-2-2-|
G-2-2-2-|
B-0-0-0-|
e-------|
Comments