Starting Line - B-list Chords & Tabs

 

B-list Chords & Tabs

Starting Line Chords & Tabs

Version: 1 Type: Tab

B-list Tab

   

				    The B-List
					by
				The Starting Line

---------------------------------------------------------------------------------------------------
I know this tab isnt complete, but some parts I just got too tired to try and figure out

so I figured that this will be able to give people a start and then they can add onto it
or if they just play with one guitar, this is more than enough

Remember its half step down tuning!

Tabbed by Richey
Email = Richey02hg@hotmail.com


Tuning = Half Step Down

Intro Verse - Clean guitar
e|-4-4-4-4--4-4-4-4--4-4-4-4--4-4-4-4--2-2-2-2--------0---| play twice
B|-5-5-5-5--5-5-5-5--5-5-5-5--5-5-5-5--2-2-2-2------0--0--|
G|-6-6-6-6--6-6-6-6--6-6-6-6--6-6-6-6--4-4-4-4----4-------|
D|-6-6-6-6--6-6-6-6--6-6-6-6--6-6-6-6--4-4-4-4--4---------|
A|-4-4-4-4--4-4-4-4--0-0-0-0--0-0-0-0---------------------|
E|--------------------------------------------------------|
                                       not sure about these

Pre verse - Guitar 1
e|-------------------------------------------------|
B|-------------------------------------------------|
G|--6-------2------------4-------------------------|
D|--6-------2-------4----4-------------------------|
A|--4-------0-------4----2-------------------------|
E|------------------2------------------------------|

Pre verse - Guitar 2 - same strumming as above except for the picking part
e|--4------7-------------0------------0-------------------|
B|--5------5-----------4---4--------4---4-----------------|
G|--6------6---------4------------4-----------------------|
D|-----------------4------------4-------------------------|
A|----------------------------2---------------------------|
E|---------------2----------------------------------------|


Verse - these chords, you'll figure out the rhtyhm
e|---------------------------------------------------|
B|---------------------------------------------------|
G|--6-------2-------------4--------------------------|
D|--6-------2--------4----4--------------------------|
A|--4-------0--------4----2--------------------------|
E|-------------------2-------------------------------|

e|-------------------------------------------------|
B|-------------------------------------------------|
G|-------------------------------------------------|
D|-------------------------------------------------|
A|-------------------------------------------------|
E|-------------------------------------------------|

Pre-Chorus
e|-------------------------------------------------|
B|-------------------------------------------------|
G|-------------9------8-------9-------11-----------|
D|--7----6---7---7--9---9--11---11--13---13--------|
A|--7----6-----------------------------------------|
E|--5----4-----------------------------------------|

e|-------------------------------------------------|
B|-------------------------------------------------|
G|---------------2-----4-----6----8----------------|
D|--7-----6------2-----4-----6----8----------------|
A|--7-----6------0-----2-----4----6----------------|
E|--5-----4----------------------------------------|

Chorus - Guitar 1
e|-----------------------------------------------------|
B|-----------------------------------------------------|
G|-----14\13------14\13-----9-9-----9/11--2---4---6----|
D|-2-2--x-x---2-2--x--x-4-4-x-x-4-4-x--x--2---4---6----|
A|-2-2-12\11--2-2-12\11-4-4-7-7-4-4-7/-9--0---2---4----|
E|-0-0--------0-0-------2-2-----2-2--------------------|

e|-------------------------------------------------|
B|-------------------------------------------------|
G|------14\13-----14\13-----9-9-----9/11--6--4--2~-|
D|--7-7--x-x--7-7--x--x-9-9-x-x-9-9-x--x--6--4--2~-|
A|--7-7-12\11-7-7-12\11-9-9-7-7-9-9-7/-9--4--2--0~-|
E|--5-5-------5-5-------7-7-----7-7----------------|
[ Tab from: http://www.guitartabs.cc/tabs/s/starting_line/b_list_tab.html ]
Chorus - Guitar2
e|-----------------------------------------------------|
B|-----------------------------------------------------|
G|-----------------------------------------------------|
D|-2-2--------2-2-------4-4-----4-4--------------------|
A|-2-2--------2-2-------4-4-----4-4-------0---2---4----|
E|-0-0--------0-0-------2-2-----2-2--------------------|
                                         not sure here
e|----------------------------------------------------|
B|----------------------------------------------------|
G|-2-2--------2-2-------4-4-----4-4-------~-----------|
D|-2-2--------2-2-------4-4-----4-4-------------------|
A|-0-0--------0-0-------2-2-----2-2-------4----2--0~--|
E|----------------------------------------------------|
                                        not sure here

Post Chorus - Guitar 1 - play twice
e|--------------------------------------------------|
B|--------------------------------------------------|
G|--6---2-------4-----------------------------------|
D|--6---2---2---4-----------------------------------|
A|--4---0---2---2-----------------------------------|
E|----------0---------------------------------------|

Post Chorus - Guitar 2 - play twice
e|-------------------------------------------------|
B|-------------------------------------------------|
G|-------------------------------------------------|
D|-------------------------------------------------|
A|-------------------------------------------------|
E|-------------------------------------------------|

Verse 2 - its all quiet until one guitar starts doing this
e|---------------------------------------------------------7------|
B|-----4-4-5-4----4-4-5-4----5-5-7-5---5-5-7-5----4-4-5-4----7-5--|
G|---6----------6-------------------------------4-----------------|
D|-------------------------7---------7----------------------------|
A|----------------------------------------------------------------|
E|----------------------------------------------------------------|
     pm..................................................


repeat pre chorus and chorus


Bridge - Guitar 1
e|-------------------------------------------------|
B|-------------------------------------------------|
G|-------------------------------------------------|
D|-------------------------------------------------|
A|-------------------------------------------------|
E|-------------------------------------------------|

Bridge - Guitar 2
e|-------------------------------------------------|
B|-------------------------------------------------|
G|-------------------------------------------------|
D|-------------------------------------------------|
A|-------------------------------------------------|
E|-------------------------------------------------|

when vocals start - Guitar 3 palmmutes these chords
e|------------------------------------------------------|
B|------------------------------------------------------|
G|----------------------------------4-------------------|
D|----7-------7--------4------------4-------------------|
A|----7-------7--------4------------2-------------------|
E|----5-------5--------2--------------------------------|

e|-------------------------------------------------|
B|-------------------------------------------------|
G|-------------------------------------------------|
D|-------------------------------------------------|
A|-------------------------------------------------|
E|-------------------------------------------------|

pre chorus and chorus with a little different strumming


Outro - Guitar 1
e|-------------------------------------------------|
B|-------------------------------------------------|
G|-------------------------------------------------|
D|-------------------------------------------------|
A|-------------------------------------------------|
E|-------------------------------------------------|

Outro - Guitar 2- just keeps repeating this
e|-------------------------------------------------|
B|-------------------------------------------------|
G|-------2~-------2-2-2-2--------------------------|
D|--2~---2~---2~--2-2-2-2--------------------------|
A|--2~---0~---2~--0-0-0-0--------------------------|
E|--0~--------0~-----------------------------------|

Email me if u got edits or things to add