Starting Line - A Goodnights Sleep Chords & Tabs

 

A Goodnights Sleep Chords & Tabs

Starting Line Chords & Tabs

Version: 2 Type: Tab 0 ratings
1 star 2 stars 3 stars 4 stars 5 stars
comments

A Goodnights Sleep Tab

-------------------------------------------------------------------------------
A Goodnight's Sleep - The Starting Line
-------------------------------------------------------------------------------
Tabbed by: Punk_loser
Email: falloutboy_5@hotmail.com

Tuning: Standard (EADGBe)

Well...this is a really good song and the other tab on here is really good..., but the
intro doesn't really sound right to me... so I just decided to tab out the way I play
it. 

e|---4-----4------4-4-----4--------------------------------------------------|
B|-----5-----5--------5-----5------------------------------------------------|
G|-4-----4-----4--------4-----4---------(X whatever)-------------------------|
D|---------------------------------------------------------------------------|
A|---------------------------------------------------------------------------|
E|---------------------------------------------------------------------------|
[ Tab from: http://www.guitartabs.cc/tabs/s/starting_line/a_goodnights_sleep_tab_ver_2.html ]
e|---------------------------------------------------------------------------|
B|---------------------------------------------------------------------------|
G|-13-13-14\13-11\9-9-9-9-9-9-9-9--------------------------------------------|
D|---------------------------------------------------------------------------|
A|-11-11-12\11-9-\7-7-7-7-7-7-7-7--------------------------------------------|
E|---------------------------------------------------------------------------|

e|---------------------------------------------------------------------------|
B|---------------------------------------------------------------------------|
G|-13-13-14\13-11\9-9-9-9-9-16-16-16-16--------------------------------------|
D|---------------------------------------------------------------------------|
A|-11-11-12\11-9-\7-7-7-7-7-14-14-14-14--------------------------------------|
E|---------------------------------------------------------------------------|

e|---------------------------------------------------------------------------|
B|---------------------------------------------------------------------------|
G|-13-13-14\13-11\9-9-9-9-9-9\11/9-9-9-9-9-9-9-9--11--13---14---16-----------|
D|---------------------------------------------------------------------------|
A|-11-11-12\11-9-\7-7-7-7-7-7\9-/7-7-7-7-7-7-7-7--9---11---12---14-----------|
E|---------------------------------------------------------------------------|

I Hope this is right... 

| /  slide up
| \  slide down
Comments