Starting Line - A Goodnights Sleep Chords & Tabs

 

A Goodnights Sleep Chords & Tabs

Starting Line Chords & Tabs

Version: 1 Type: Tab 0 ratings
1 star 2 stars 3 stars 4 stars 5 stars
comments

A Goodnights Sleep Tab

---------------------------------------------------------------------
		A Goodnights Sleep by The Starting Line
---------------------------------------------------------------------

By:john schroeder ( schrodes9@hotmail.com)

INTRO
    Guitar 1
e|-4---4----4-4------4-----------------------------------------------
B|---5---5------5------5---------------------------------------------
G|----------------4------4----X 10-----------------------------------
D|-------------------------------------------------------------------
A|-------------------------------------------------------------------
E|-------------------------------------------------------------------

   Guitar 2
e|-------------------------------------------------------------------
B|-------------------------------------------------------------------
G|1-1h2-1-------1-1h2-1--------4---1-1h2-1--------------1-4----------
D|--------4--2----------4-2-22-------------4-2-2h4-22-4--------------
A|-------------------------------------------------------------------
E|-------------------------------------------------------------------

VERSE
   Guitar 1
e|-------------------------------------------------------------------
B|-------------------------------------------------------------------
G|----------4--------6------4------2--------------------------------
D|-2--------4-x 16---6-x-8--4-x-8--2-x-16-----whole thing twice
A|-2-x 16-- 2--------4------2------0---------------------------------
E|-0-----------------------------------------------------------------
  
  "a better slumber, was in your arms........"
Verse
   Guitar 2

e|-------------------------------------------------------------------
B|-------------------------------------------------------------------
G|---------4-------6------4------2-----------------------------------
D|-2-------4-x-16--6-x-8--4-x-8--2-x-16 whole thing once and then 
A|-2-x-16--2-------4------2------0-----------------------------------
E|-0-----------------------------------------------------------------
[ Tab from: http://www.guitartabs.cc/tabs/s/starting_line/a_goodnights_sleep_tab.html ]
e|-------------------------------------------------------------------
B|-------------------------------------------------------------------
G|---------4-------------------44-----------44----------44----------4
D|-2-------4-x-16-----------22----22-----22----22----22----22----22--
A|-2-x-16--2-------then--44-----------22----------00----------00-----
E|-0-----------------------------------------------------------------

  Pre Chorus
e|-------------------------------------------------------------------
B|--4h5-4-0-0h5-0-0h5-0-4h5-4----------------------------------------
G|--------------------------------x-4--------------------------------
D|-------------------------------------------------------------------
A|-------------------------------------------------------------------
E|-------------------------------------------------------------------
   "what can i say, wheres that girl from last night........"


  Chorus
 Guitar 1    ( hold last chord of each)  Guitar 2 does the same as its intro
e|-------------------------------------------------------------------
B|-------------------------------------------------------------------
G|-------------4----4-----6-----4-----2------------------------------
D|-2-----2-----4-x3-4-x3--6-x3--4-x3--2-x6----------whole thing x 2
A|-2-x3--2-x3--2----2-----4-----2-----0------------------------------
E|-0-----0-----------------------------------------------------------
    " you can sleep in your own bed tonight......"

  small bass part
e|-------------------------------------------------------------------
B|-------------------------------------------------------------------
G|-------------------------------------------------------------------
D|-------------------------------------------------------------------
A|------------------2222222222222222-4444444444444444-000000000000000
E|-0000000000000000--------------------------------------------------
   "sleep in your own bed,   toniiiiiight......." 

final chorus ( the heavy part)  Guitar 2 does prechorus part
E|-------------------------------------------------------------------
B|-------------------------------------------------------------------
G|-------------------44-44-44-4-4-4-4--66-66--44-4444----------------
D|-22-22-22--2-2-2-2-44-44-44-4-4-4-4--66-66--44-4444--22-22--2-x2-2-
A|-22-22-22--2-2-2-2-22-22-22-2-2-2-2--44-44--22-2222--00-00--0----2-
E|-00-00-00--0-0-0-0-----------------------------------------------0-
   "cause fate works both ways........"
Comments