Starship - Sara Chords & Tabs

 

Sara Chords & Tabs

Starship Chords & Tabs

Version: 1 Type: Tab 0 ratings
1 star 2 stars 3 stars 4 stars 5 stars
comments

Sara Tab

   
##################################################################################
# This file is the author's own work and represents their interpretation of the  #
# song. You may only use this file for private study, scholarship, or research.  #
##################################################################################

Sara
Starship
From the Album-"Knee Deep In The Hoopla"
1986
Written by Peter Wolf
Tabbed by Ray Scheidler 



Chords:

   F/Bb  Bb   Am7    Am    D   Gm7 Ebmaj7 C7sus
E---1-----1----------------2----3-----3-----3--
B---1-----3----1------1----3----3-----3-----1--
G---2-----3-----------2----2----3-----3-----3--
D---3-----3----2------2---------3-----1-----3--
A---1---------------------------------1--------
E----------------------------------------------


  Dsus   Dm7   Eb   Dm7/G F/Eb   Db    Eb/Db
E---3-----1-----3-----1-----1-----1------3-----
B---3-----1-----4-----1-----1-----2------4-----
G---2-----2-----3-----2-----2-----1------3-----
D---------1-----5-----------3-----3------------
A----------------------------------------4-----
E---------------------3------------------------

[ Tab from: http://www.guitartabs.cc/tabs/s/starship/sara_tab.html ]
   Fsus        F        Eb/F       F7sus
E---1----------1----------3----------1---------
B---1----------1----------4----------1---------
G---3----------2----------3----------3---------
D---3----------3----------3----------1---------
A----------------------------------------------
E----------------------------------------------


F/Bb   Bb                       Am7
E--------------------------------------------
B------------6--4----------------------------
G--5--7-(7)---------7--5-----------5--7------
D--------------------------8--8----------7---
A--------------------------------------------
E--------------------------------------------

  F/Bb   Bb
E--------------------------------------------
B--------------------------------------------
G--5--7---7--5--------------10---8----7------
D----------------8-----8---------------------
A--------------------------------------------
E--------------------------------------------


                Am
E--------------------------------------------
B--------------------------------------------
G--------------------------------------------
D--10-----8-----10-----12-----10-------------
A--------------------------------------------
E--------------------------------------------


Comments