Starsailor - Way To Fall Chords & Tabs

 

Way To Fall Chords & Tabs

Starsailor Chords & Tabs

Version: 2 Type: Tab

Way To Fall Tab

   
I reviewed the other tab around and I figured some minor mistakes.

I retabbed bits of it according to it and here it is:
(Any questions please feel free to email me)kikflip2indi@Hotmail.com
[ Tab from: http://www.guitartabs.cc/tabs/s/starsailor/way_to_fall_tab_ver_2.html ]
   Dm  Am  A/Bb   F    A
E--1----0----1----1----0---|
B--3----1----3----1----2---|
G--2----2----3----2----2---|
D--0----2----3----3----2---|
A--0----0----1----0----0---|
E--0----0----x----0----0---|

This is one way of it. You can use chord variations if you feel the need to challenge yourself.


E--0----5----6----1----5---|
B--6----5----6----1----5---|
G--7----5----7----2----6---|
D--7----7----8----3----7---|
A--5----7----8----3----7---|
E--0----5----6----1----5---|


Both tabs sound almost exactly the same to each other and/or the song.

Thank you for reading this tab.