Starsailor - Poor Misguided Fool Chords & Tabs

 

Poor Misguided Fool Chords & Tabs

Starsailor Chords & Tabs

Version: 1 Type: Bass Tab

Poor Misguided Fool Bass Tab

STARSAILOR
Poor misguided fool

       
You can try it with normal tuning

                                                             
F#||------------------|------------------|------------------|
C#||------------------|------------------|------------------|
G#||------------------|------------------|------------------|
D#||------------------|------------------|------------------|
A#||------------------|------------------|------------------|


                                                                         
---------------2-----|------------------------|----------------------0--|
------------3--------|--0--0----0--0--0----0--|--0--0----0--0--2--3-----|
------------------3--|------------------------|-------------------------|
---------------------|------------------------|-------------------------|
---------------------|------------------------|-------------------------|


                                                                           
--2--2----2--2--2-------|--2--2----2--2--2-------|--2--2----2--2--2----2--|
---------------------2--|---------------------2--|------------------------|
------------------------|------------------------|------------------------|
------------------------|------------------------|------------------------|
------------------------|------------------------|------------------------|


                                                                              
--2--2--0--0--------------|------------------------|------------------------
--------------3--3--2--2--|--0--0----0--0--0----0--|--0--0----0--0--3--0----
--------------------------|------------------------|----------------------3-
--------------------------|------------------------|------------------------
--------------------------|------------------------|------------------------


                                                                            
------------------------|----------------------0--|--2--2----2--2--2-------|
--0--0----0--0--0----0--|--0--0----0--0--2--3-----|---------------------2--|
------------------------|-------------------------|------------------------|
------------------------|-------------------------|------------------------|
------------------------|-------------------------|------------------------|


                                                                             
--2--2----2--2--2-------|--2--2----2--2--2----2--|--2--2--0--0--------------
---------------------2--|------------------------|--------------3--3--2--2--
------------------------|------------------------|--------------------------
------------------------|------------------------|--------------------------
------------------------|------------------------|--------------------------


                                                                            
------------------------|-------------------------|------------------------|
--0--0----0--0--0----0--|--0--0----0--0--3--0-----|--0--0----0--0--0----0--|
------------------------|----------------------3--|------------------------|
------------------------|-------------------------|------------------------|
------------------------|-------------------------|------------------------|


                                                                            
----------------------0--|--2--2----2--2--2-------|--2--2----2--2--2-------|
--0--0----0--0--2--3-----|---------------------2--|---------------------2--|
-------------------------|------------------------|------------------------|
-------------------------|------------------------|------------------------|
-------------------------|------------------------|------------------------|


                                                                             
--2--2----2--2--2----2--|--2--2--0--0--------------|------------------------
------------------------|--------------3--3--2--2--|--0--0----0--0--0----0--
------------------------|--------------------------|------------------------
------------------------|--------------------------|------------------------
------------------------|--------------------------|------------------------


                                                                             
-------------------------|------------------------|----------------------0--
--0--0----0--0--3--0-----|--0--0----0--0--0----0--|--0--0----0--0--2--3-----
----------------------3--|------------------------|-------------------------
-------------------------|------------------------|-------------------------
-------------------------|------------------------|-------------------------


                                                                           
--2--2----2--2--2-------|--2--2----2--2--2-------|--2--2----2--2--2----2--|
---------------------2--|---------------------2--|------------------------|
------------------------|------------------------|------------------------|
------------------------|------------------------|------------------------|
------------------------|------------------------|------------------------|


                                                                              
--2--2--0--0--------------|------------------------|------------------------
--------------3--3--2--2--|--0--0----0--0--0----0--|--0--0----0--0--3--0----
--------------------------|------------------------|----------------------3-
--------------------------|------------------------|------------------------
--------------------------|------------------------|------------------------


                                                                            
------------------------|----------------------0--|--2--2----2--2--2-------|
--0--0----0--0--0----0--|--0--0----0--0--2--3-----|---------------------2--|
------------------------|-------------------------|------------------------|
------------------------|-------------------------|------------------------|
------------------------|-------------------------|------------------------|


                                                                             
--2--2----2--2--2-------|--2--2----2--2--2----2--|--2--2--0--0--------------
---------------------2--|------------------------|--------------3--3--2--2-|
------------------------|------------------------|--------------------------
------------------------|------------------------|--------------------------
------------------------|------------------------|--------------------------


                                                                            
------------------------|-------------------------|------------------------|
--0--0----0--0--0----0--|--0--0----0--0--3--0-----|--0--0----0--0--0----0--|
------------------------|----------------------3--|------------------------|
------------------------|-------------------------|------------------------|
------------------------|-------------------------|------------------------|


                                                                            
----------------------0--|--2--2----2--2--2-------|--2--2----2--2--2-------|
--0--0----0--0--2--3-----|---------------------2--|---------------------2--|
-------------------------|------------------------|------------------------|
-------------------------|------------------------|------------------------|
-------------------------|------------------------|------------------------|


                                                                             
--2--2----2--2--2----2--|--2--2--0--0--------------|------------------------
------------------------|--------------3--3--2--2--|--0--0----0--0--0----0--
------------------------|--------------------------|------------------------
------------------------|--------------------------|------------------------
------------------------|--------------------------|------------------------


                                                                             
-------------------------|------------------------|----------------------0--
--0--0----0--0--3--0-----|--0--0----0--0--0----0--|--0--0----0--0--2--3-----
----------------------3--|------------------------|-------------------------
-------------------------|------------------------|-------------------------
-------------------------|------------------------|-------------------------

[ Tab from: http://www.guitartabs.cc/tabs/s/starsailor/poor_misguided_fool_btab.html ]
                                                                           
--2--2----2--2--2-------|--2--2----2--2--2-------|--2--2----2--2--2----2--|
---------------------2--|---------------------2--|------------------------|
------------------------|------------------------|------------------------|
------------------------|------------------------|------------------------|
------------------------|------------------------|------------------------|


                                                                              
--2--2--0--0--------------|------------------------|------------------------
--------------3--3--2--2--|--0--0----0--0--0----0--|--0--0----0--0--3--0----
--------------------------|------------------------|----------------------3-
--------------------------|------------------------|------------------------
--------------------------|------------------------|------------------------


                                                                            
------------------------|----------------------0--|--2--2----2--2--2-------|
--0--0----0--0--0----0--|--0--0----0--0--2--3-----|---------------------2--|
------------------------|-------------------------|------------------------|
------------------------|-------------------------|------------------------|
------------------------|-------------------------|------------------------|


                                                                             
--2--2----2--2--2-------|--2--2----2--2--2----2--|--2--2--0--0--------------
---------------------2--|------------------------|--------------3--3--2--2--
------------------------|------------------------|--------------------------
------------------------|------------------------|--------------------------
------------------------|------------------------|--------------------------


                                                                       
------------------------|-------------------------|-------------------|
--0--0----0--0--0----0--|--0--0----0--0--3--0-----|-------------------|
------------------------|----------------------3--|--1----------------|
------------------------|-------------------------|-------------------|
------------------------|-------------------------|-------------------|


                                                                      
-------------------|------------------------|------------------------|
-------------------|------------------------|------------0-----------|
--3/---------------|-------3----------------|---------0-----0-----0--|
-------------------|--1-------1--0----1--0--|------------------1-----|
-------------------|------------------------|--3---------------------|


                                                                   
-------------------|-------------------|--------------------------|
-------------------|-------------------|--------------------------|
--1----------------|--3----------------|--0--0--0--0--0--0--0--0--|
-------------------|-------------------|--------------------------|
-------------------|-------------------|--------------------------|


                                                                              
--------------------------|------------------------|----------------------0-
--------------------------|--0--0----0--0--0----0--|--0--0----0--0--2--3----
--0--0--------------------|------------------------|------------------------
--------3--3--1--1--0--0--|------------------------|------------------------
--------------------------|------------------------|------------------------


                                                                           
--2--2----2--2--2-------|--2--2----2--2--2-------|--2--2----2--2--2----2--|
---------------------2--|---------------------2--|------------------------|
------------------------|------------------------|------------------------|
------------------------|------------------------|------------------------|
------------------------|------------------------|------------------------|


                                                                              
--2--2--0--0--------------|------------------------|------------------------
--------------3--3--2--2--|--0--0----0--0--0----0--|--0--0----0--0--3--0----
--------------------------|------------------------|----------------------3-
--------------------------|------------------------|------------------------
--------------------------|------------------------|------------------------


                                                                            
------------------------|----------------------0--|--2--2----2--2--2-------|
--0--0----0--0--0----0--|--0--0----0--0--2--3-----|---------------------2--|
------------------------|-------------------------|------------------------|
------------------------|-------------------------|------------------------|
------------------------|-------------------------|------------------------|


                                                                             
--2--2----2--2--2-------|--2--2----2--2--2----2--|--2--2--0--0--------------
---------------------2--|------------------------|--------------3--3--2--2--
------------------------|------------------------|--------------------------
------------------------|------------------------|--------------------------
------------------------|------------------------|--------------------------


                                                                            
------------------------|-------------------------|------------------------|
--0--0----0--0--0----0--|--0--0----0--0--3--0-----|--0--0----0--0--0----0--|
------------------------|----------------------3--|------------------------|
------------------------|-------------------------|------------------------|
------------------------|-------------------------|------------------------|


                                                                            
----------------------0--|--2--2----2--2--2-------|--2--2----2--2--2-------|
--0--0----0--0--2--3-----|---------------------2--|---------------------2--|
-------------------------|------------------------|------------------------|
-------------------------|------------------------|------------------------|
-------------------------|------------------------|------------------------|


                                                                             
--2--2----2--2--2----2--|--2--2--0--0--------------|------------------------
------------------------|--------------3--3--2--2--|--0--0----0--0--0----0--
------------------------|--------------------------|------------------------
------------------------|--------------------------|------------------------
------------------------|--------------------------|------------------------


                                                                             
-------------------------|------------------------|----------------------0--
--0--0----0--0--3--0-----|--0--0----0--0--0----0--|--0--0----0--0--2--3-----
----------------------3--|------------------------|-------------------------
-------------------------|------------------------|-------------------------
-------------------------|------------------------|-------------------------


                                                                           
--2--2----2--2--2-------|--2--2----2--2--2-------|--2--2----2--2--2----2--|
---------------------2--|---------------------2--|------------------------|
------------------------|------------------------|------------------------|
------------------------|------------------------|------------------------|
------------------------|------------------------|------------------------|


                                                                              
--2--2--0--0--------------|------------------------|------------------------
--------------3--3--2--2--|--0--0----0--0--0----0--|--0--0----0--0--3--0----
--------------------------|------------------------|----------------------3-
--------------------------|------------------------|------------------------
--------------------------|------------------------|------------------------


                     
-------------------||
--0----------------||
-------------------||
-------------------||
-------------------||



Tabbed by Ed_Hunter