Starsailor - Good Souls Chords & Tabs

 

Good Souls Chords & Tabs

Starsailor Chords & Tabs

Version: 1 Type: Bass Tab 0 ratings
1 star 2 stars 3 stars 4 stars 5 stars
comments

Good Souls Bass Tab

#----------------------------------PLEASE NOTE----------------------------------#
# This file is the author's own work and represents their interpretation of the #
# song. You may only use this file for private study, scholarship, or research. #
#-------------------------------------------------------------------------------#

Artist: Starsailor
Title: Good Souls

Tabbed by Zinco (zinco@freemail.it)

(Verse)

Feel sick after...
|---------------------|
|---------------------| 
|---------------------| 
|---3---5-5-3---5-5---|

(Chorus)
[ Tab from: http://www.guitartabs.cc/tabs/s/starsailor/good_souls_btab.html ]
So I turn to you...
|----------------------------------------------|
|----------------------------------------------|
|----------------------------------------------|
|---5-5--------5---5---------5-5--------5---5--|

|----------------------------------------------|
|----------------------------------------------|
|----------------------------------------------|
|---5-5--------5---5---------1-1--------3---3--|



(Outro)

|-------------------------------|
|-------------------------------| 
|-------------------------------| 
|---3---5-5-3---5---5---3-5-3-5-|

This is my first bass tab so...I'm sorry if it's wrong, anyway if you opened this file 
it's because you didn't know how to do it so.................

Thanks to Liam Gallagher, thanks man!!
Comments