Starsailor - Four To The Floor Chords & Tabs

 

Four To The Floor Chords & Tabs

Starsailor Chords & Tabs

Version: 2 Type: Tab 0 ratings
1 star 2 stars 3 stars 4 stars 5 stars
comments

Four To The Floor Tab

   
---
Starsailor - Four to the Floor (the non-dance version)
---
Tempo: 192 bpm
The stems on the notes are their duration. I really hate tabs without any sort of timing!
r is for rest.



   ===INTRO===

SYNTH (and slight variations of it on the chorus)

E||--9----------------|--------------9/---|
B||-------------------|--------------|----|
G||-------------------|--------------|----|
D||-------------------|--------------|----|
A||-------------------|-------------------|
E||-------------------|-------------------|

                                                                      
--16----------11--|--11---12---11---12--|--9----------------|
--|-----------|---|--|----|----|----|---|-------------------|
--|-----------|---|--|----|----|----|---|-------------------|
--|.----------|---|--|----|----|----|---|-------------------|
------------------|---------------------|-------------------|
------------------|---------------------|-------------------|

                                                                   
------------------|----------11----9----|--11----12----11----9----|
------------------|----------|-----|----|--|-----|-----|-----|----|
------------------|----------|-----|----|--|-----|-----|-----|----|
------------------|----------|-----|----|--|-----|-----|-----|----|
------------------|---------------------|-------------------------|
------------------|---------------------|-------------------------|

                                                                   
--12----------------|--------------16--14--|--16------------12----|
--------------------|--------------|----|--|--|-------------|-----|
--------------------|--------------|----|--|--|-------------|-----|
--------------------|--------------|/---|/-|--|.------------|-----|
--------------------|----------------------|----------------------|
--------------------|----------------------|----------------------|

                                                                 
--11----12----11----7----|--4----------------|------------------|
--|-----|-----|-----|----|-------------------|------------------|
--|-----|-----|-----|----|-------------------|------------------|
--|-----|-----|-----|----|-------------------|------------------|
-------------------------|-------------------|------------------|
-------------------------|-------------------|------------------|

                                                                  
--7--8--9--r--9--r--9--|-9--r--9--r--9--r--9--||
--|--|--|--|--|--|--|--|-|--|--|--|--|--|--|--||
--|--|--|--|--|--|--|--|-|--|--|--|--|--|--|--||
--|/-|/-|/-|/-|/-|/-|/-|-|/-|/-|/-|/-|/-|/-|/-||
-----------------------|----------------------||
-----------------------|----------------------||

BASS (Same for the chorus)
These are all quater beats.
                                                                  
G||---------------------|---------------------|
D||---------------------|---------------------|
A||--4----4----r---2----|--4----4---r----2----|
E||---------------------|---------------------|

                                                               
---------------------|----------------------|----------------------|
---------------------|----------------------|-------7----6----7----|
--4----4----r---2----|--6----6----7----7----|--0-------------------|
---------------------|----------------------|----------------------|
[ Tab from: http://www.guitartabs.cc/tabs/s/starsailor/four_to_the_floor_tab_ver_2.html ]
                                                              
--------------------|----------------------|--------------------|
-----------6-hold---|-------7----6----7----|-----------6-hold---|
--r---0-------------|--0-------------------|--r---0-------------|
--------------------|----------------------|--------------------|

                                                                  
---------------------|---------------------|---------------------|
---------------------|---------------------|---------------------|
--9----9----r---7----|--9----9----r---7----|--9----9----r---7/---|
---------------------|---------------------|---------------------|

                                                                   
----------------------|---------------------|---------------------|
----------------------|---------------------|---------------------|
--6----6----7----7----|--4----4----r----2---|--4----4----r---2----|
----------------------|---------------------|---------------------|

                                                                  
---------------------|----------------------|
---------------------|----------------------|
--4----4-----r---2---|--4----4----4----4----|
---------------------|----------------------|


GUITAR - repeated over and over in the intro.

E||-----------------------|----------------------||
B||--|\-|\-|----|----|----|--|----|----|---------||
G||--|--|--|----|----|----|--|----|----|---------||
D||--|--|--|----|----|----|--|----|----|---------||
A||--2--3--4----4----4----|--4----4----4----4----||
E||-----------------------|----------------------||

   ===VERSE===

PIANO - Chords:
C#m  C#m9  A  E  A  E  F#  E
                               
BASS (Repeated until the chorus)                               
||------------------|--------------------|--------------------|--------------------|
||------------------|--------------------|--------------------|--------------------|
||--4---4--r---r----|--4----4----r---r---|--2----2----r---r---|--2----2---r--r-----|
||------------------|--------------------|--------------------|--------------------|

                                                             
--------------------|--------------------|--------------------|
--------------------|--------------------|--2----2------------|
--0----0---r----r---|--0----0----r---r---|-------------r---r--|
--------------------|--------------------|--------------------|

                                                               
--------------------|--------------------|--------------------|
--2----2------------|--------------------|--------------------|
------------r---r---|--0----0---r---r----|--0----0---r--r-----|
--------------------|--------------------|--------------------|

                                                               
--------------------|--------------------|--------------------|
--2----2------------|--2----2------------|--------------------|
-----------r---r----|-----------r---r----|------------r---r---|
--------------------|--------------------|--2----2------------|

                                                               
--------------------|--------------------|--------------------||
--------------------|--------------------|--------------------||
------------r---r---|---------r--r-------|------------r--r----||
--2----2------------|--2----2------------|--2----2------------||
Comments