Starsailor - Four To The Floor Chords & Tabs

 

Four To The Floor Chords & Tabs

Starsailor Chords & Tabs

Version: 1 Type: Bass Tab

Four To The Floor Bass Tab

STARSAILOR
Four to the floor



                                                                  
G||------------------|---------------------|---------------------|
D||------------------|---------------------|---------------------|
A||------------------|--4----4--------2----|--4----4--------2----|
E||------------------|---------------------|---------------------|


                                                                    
---------------------|----------------------|----------------------|
---------------------|----------------------|-------7----6----7----|
--4----4--------2----|--6----6----7----7----|--0-------------------|
---------------------|----------------------|----------------------|


                                                                 
--------------------|----------------------|--------------------|
-----------6r-------|-------7----6----7----|-----------6r-------|
------0-------------|--0-------------------|------0-------------|
--------------------|----------------------|--------------------|


                                                                  
---------------------|---------------------|---------------------|
---------------------|---------------------|---------------------|
--9----9--------7----|--9----9--------7----|--9----9--------7/---|
---------------------|---------------------|---------------------|


                                                                   
----------------------|---------------------|---------------------|
----------------------|---------------------|---------------------|
--6----6----7----7----|--4----4--------2----|--4----4--------2----|
----------------------|---------------------|---------------------|


                                                                  
---------------------|----------------------|--------------------|
---------------------|----------------------|--------------------|
--4----4--------2----|--4----4----4----4----|--4----4------------|
---------------------|----------------------|--------------------|


                                                               
--------------------|--------------------|--------------------|
--------------------|--------------------|--------------------|
--4----4------------|--2----2------------|--2----2------------|
--------------------|--------------------|--------------------|


                                                               
--------------------|--------------------|--------------------|
--------------------|--------------------|--2----2------------|
--0----0------------|--0----0------------|--------------------|
--------------------|--------------------|--------------------|


                                                               
--------------------|--------------------|--------------------|
--2----2------------|--------------------|--------------------|
--------------------|--0----0------------|--0----0------------|
--------------------|--------------------|--------------------|


                                                               
--------------------|--------------------|--------------------|
--2----2------------|--2----2------------|--------------------|
--------------------|--------------------|--------------------|
--------------------|--------------------|--2----2------------|

[ Tab from: http://www.guitartabs.cc/tabs/s/starsailor/four_to_the_floor_btab.html ]
                                                               
--------------------|--------------------|--------------------|
--------------------|--------------------|--------------------|
--------------------|--------------------|--------------------|
--2----2------------|--2----2------------|--2----2------------|


                                                               
--------------------|--------------------|--------------------|
--------------------|--------------------|--------------------|
--4----4------------|--4----4------------|--2----2------------|
--------------------|--------------------|--------------------|


                                                               
--------------------|--------------------|--------------------|
--------------------|--------------------|--------------------|
--2----2------------|--0----0------------|--0----0------------|
--------------------|--------------------|--------------------|


                                                               
--------------------|--------------------|--------------------|
--2----2------------|--2----2------------|--------------------|
--------------------|--------------------|--0----0------------|
--------------------|--------------------|--------------------|


                                                               
--------------------|--------------------|--------------------|
--------------------|--2----2------------|--2----2------------|
--0----0------------|--------------------|--------------------|
--------------------|--------------------|--------------------|


                                                               
--------------------|--------------------|--------------------|
--------------------|--------------------|--------------------|
--------------------|--------------------|--0----0------------|
--2----2------------|--2----2------------|--------------------|


                                                                 
--------------------|---------------------|---------------------|
--------------------|---------------------|---------------------|
--0----0------------|--4----4--------2----|--4----4--------2----|
--------------------|---------------------|---------------------|


                                                                    
---------------------|----------------------|----------------------|
---------------------|----------------------|-------7----6----7----|
--4----4--------2----|--6----6----7----7----|--0-------------------|
---------------------|----------------------|----------------------|


                                                                 
--------------------|----------------------|--------------------|
-----------6r-------|-------7----6----7----|-----------6r-------|
------0-------------|--0-------------------|------0-------------|
--------------------|----------------------|--------------------|


                                                                  
---------------------|---------------------|---------------------|
---------------------|---------------------|---------------------|
--9----9--------7----|--9----9--------7----|--9----9--------7/---|
---------------------|---------------------|---------------------|


                                                                   
----------------------|---------------------|---------------------|
----------------------|---------------------|---------------------|
--6----6----7----7----|--4----4--------2----|--4----4--------2----|
----------------------|---------------------|---------------------|


                                              
---------------------|----------------------||
---------------------|----------------------||
--4----4--------2----|--4----4----4----4----||
---------------------|----------------------||




Tabbed by Ed_Hunter