Starsailor - Fever Chords & Tabs

 

Fever Chords & Tabs

Starsailor Chords & Tabs

Version: 1 Type: Tab 0 ratings
1 star 2 stars 3 stars 4 stars 5 stars
comments

Fever Tab

STARSAILOR - "FEVER" 
(LOVE IS HERE)

It's a 100% correct.

INTRO:
e|--2--2--2--7--|
B|--3--0--2--7--|
G|--4--0--3--7--|
D|--4--0--4--9--| one time
A|--2--2--4--9--|
E|-----3--2--7--|

VERSES:
e|--2--2--2--2--|
B|--3--0--2--3--|
G|--4--0--3--4--|
D|--4--0--4--4--| several times
A|--2--2--4--2--|
E|-----3--2-----|
[ Tab from: http://www.guitartabs.cc/tabs/s/starsailor/fever_tab.html ]
CHORUS:
e|--2--3--0--2--|
B|--3--3--0--2--|
G|--4--4--1--3--|
D|--4--5--2--4--| two times
A|--2--5--2--4--|
E|-----3--0--2--|

INTERMEZZO/SOLO:
e|--------------------------------|--7-7-7/9--9~---9-9-9/10--10~--|
B|--------------------------------|-------------------------------|
G|--11--9--7--4~----11--9--7--4~--|--4-4-4/6--6~---6-6-6h7---7~---|
D|--X---X--X--X-----X---X--X--X---|-------------------------------|
A|--9---7--5--2~----9---7--5--2~--|-------------------------------|
E|--------------------------------|-------------------------------|

Thank you
Comments