Stars - Your Ex-lover Is Dead Chords & Tabs

 

Your Ex-lover Is Dead Chords & Tabs

Stars Chords & Tabs

Version: 1 Type: Bass Tab 0 ratings
1 star 2 stars 3 stars 4 stars 5 stars
comments

Your Ex-lover Is Dead Bass Tab

   
-------------------------------------------------------------------------------
			     Your Ex-Lover Is Dead - Stars
-------------------------------------------------------------------------------

Tabbed By : imessyou
e-mail: theblochead@hotmail.co.uk

Tuning: standard EADG

Intro
G|---------5-7-9--|------------|---------5-7-9--|------------|
D|-7---9---------7|-7----------|-7---9---------7|-7----------|
A|----------------|------8----8|----------------|------------|
E|----------------|------------|----------------|-----10----8|

(Bass rest)

Verse
"God that was strange to see you again..."
(time signature 3/4)
G|-------------|------------|
D|-------------|-3-3-3-5-5-5|
A|-3-3-3-3-3-3-|------------|
E|-------------|------------|X3

Fourth time through verse
"In that instant it started to pour..."
G|-------------|------------|
D|-------------|-3-3-3-5----|
A|-3-3-3-3-3-3-|------------|
E|-------------|------------|

"Captured a taxi despite all the rain..."
G|------------|-----------|
D|-3-3-3-3-3-3|7-7-7-5-5-5|
A|------------|-----------|
E|------------|-----------|X4

(Bass rest)

"This scar is a fleck on my porcelain skin..."
G|-------------|------------|
D|-------------|-3-3-3-5-5-5|
A|-3-3-3-3-3-3-|------------|
E|-------------|------------|X

Fourth time through verse
"Repent all your sin..."
G|-------------|------------|
D|-------------|-3-3-3-5----|
A|-3-3-3-3-3-3-|------------|
E|-------------|------------|
[ Tab from: http://www.guitartabs.cc/tabs/s/stars/your_ex_lover_is_dead_btab.html ]
"It's nothing but time and a face that you lose..."
G|------------|-----------|
D|-3-3-3-3-3-3|7-7-7-5-5-5|
A|------------|-----------|
E|------------|-----------|X4

Bridge (I suppose)
"Live through this and you won't look back..."
(Time signature 4/4)
G|---------5-7-9--|------------|---------5-7-9--|------------|
D|-7---9---------7|-7----------|-7---9---------7|-7----------|
A|----------------|------8-----|----------------|------------|
E|----------------|-----------8|----------------|-----10----8|X3

Verse
"There's one thing I want to say, so I'll be brave..."
(time signature 3/4)
G|-------------|------------|
D|-------------|-3-3-3-5-5-5|
A|-3-3-3-3-3-3-|------------|
E|-------------|------------|X3

Fourth time through verse
"I'm not sorry there's nothing to say..."
G|-------------|------------|
D|-------------|-3-3-3-5----|
A|-3-3-3-3-3-3-|------------|
E|-------------|------------|


"I'm not sorry there's nothing to say..."
G|------------|-----------|
D|-3-3-3-3-3-3|7-7-7-5-5-5|
A|------------|-----------|
E|------------|-----------|X8

Ending
G|---------5-7-9--|------------|---------5-7-9--|------------|
D|-7---9---------7|-7----------|-7---9---------7|-7----------|
A|----------------|------8-----|----------------|------------|
E|----------------|-----------8|----------------|-----10----8|

Rate it now damn you

| /  slide up
| \  slide down
| h  hammer-on
| p  pull-off
| ~  vibrato
| +  harmonic
| x  Mute note
===============================================================================
Comments