Stars - Dead Hearts Chords & Tabs

 

Dead Hearts Chords & Tabs

Stars Chords & Tabs

Version: 1 Type: Tab 0 ratings
1 star 2 stars 3 stars 4 stars 5 stars
comments

Dead Hearts Tab

   
Capo on 3
Chords:(Chords are relative to no capo)
F: 133211
CSUS: 335553
G: 355433 
Am: 02210
C(not barre): 32010

VERSE 1

Tell me
      F                                F
   everything that             happened
E---------------------------|-------------------------------|
B-----1-----1-----1-----1---|-----1-----1-----1-----1-------|
G-----2-----2-----2-----2---|-----2-----2-----2-----2-------|
D---------------------------|-------------------------------|
A--3-----3-----3-----3------|--3-----3-----3-----3----------|
E---------------------------|-------------------------------|  
            
   CSUS                                G
everything                       you saw,          they had
E---------------------------|-----------------------------------|
B-----5-----5-----5-----5---|------3------3------3------3-------|
G-----5-----5-----5-----5---|------4------4------4------4-------|
D---------------------------|-----------------------------------|
A--3-----3-----3-----3------|--5------5-------5------5----------|
E---------------------------|-----------------------------------|

 CSUS                           CSUS
lights inside their           eyes, they had
E---------------------------|-----------------------------------|
B-----5-----5-----5-----5---|------5------5------5------5-------|
G-----5-----5-----5-----5---|------5------5------5------5-------|
D---------------------------|-----------------------------------|
A--3-----3-----3-----3------|--3------3-------3------3----------|
E---------------------------|-----------------------------------|

 CSUS                           CSUS
lights inside their           eyes. 
E------3----3-----3-----3---|------3------3------3------3-------|
B------5----5-----5-----5---|------5------5------5------5-------|
G---------------------------|-----------------------------------|
D---------------------------|-----------------------------------|
A--3-----3-----3-----3------|--3------3-------3------3----------|
E---------------------------|-----------------------------------|


VERSE 2

Did you
      F                                F
   see the closing              window, did you
E---------------------------|-------------------------------|
B-----1-----1-----1-----1---|-----1-----1-----1-----1-------|
G-----2-----2-----2-----2---|-----2-----2-----2-----2-------|
D---------------------------|-------------------------------|
A--3-----3-----3-----3------|--3-----3-----3-----3----------|
E---------------------------|-------------------------------|  
            
   CSUS                                G
hear the slamming                 door, they moved
E---------------------------|-----------------------------------|
B-----5-----5-----5-----5---|------3------3------3------3-------|
G-----5-----5-----5-----5---|------4------4------4------4-------|
D---------------------------|-----------------------------------|
A--3-----3-----3-----3------|--5------5-------5------5----------|
E---------------------------|-----------------------------------|

 CSUS                           CSUS
forward and my heart           died they moved 
E---------------------------|-----------------------------------|
B-----5-----5-----5-----5---|------5------5------5------5-------|
G-----5-----5-----5-----5---|------5------5------5------5-------|
D---------------------------|-----------------------------------|
A--3-----3-----3-----3------|--3------3-------3------3----------|
E---------------------------|-----------------------------------|

 CSUS                           CSUS
forward and my heart           died 
E------3----3-----3-----3---|------3------3------3------3-------|
B------5----5-----5-----5---|------5------5------5------5-------|
G---------------------------|-----------------------------------|
D---------------------------|-----------------------------------|
A--3-----3-----3-----3------|--3------3-------3------3----------|
E---------------------------|-----------------------------------|

VERSE 3
[ Tab from: http://www.guitartabs.cc/tabs/s/stars/dead_hearts_tab.html ]
Please please
      F                                F
   tell me what they           look like, did they
E---------------------------|-------------------------------|
B-----1-----1-----1-----1---|-----1-----1-----1-----1-------|
G-----2-----2-----2-----2---|-----2-----2-----2-----2-------|
D---------------------------|-------------------------------|
A--3-----3-----3-----3------|--3-----3-----3-----3----------|
E---------------------------|-------------------------------|  
            
   CSUS                                G
follow you to                  town, they make me
E---------------------------|-----------------------------------|
B-----5-----5-----5-----5---|------3------3------3------3-------|
G-----5-----5-----5-----5---|------4------4------4------4-------|
D---------------------------|-----------------------------------|
A--3-----3-----3-----3------|--5------5-------5------5----------|
E---------------------------|-----------------------------------|

 CSUS                           CSUS
feel I'm falling              down, they make me 
E---------------------------|-----------------------------------|
B-----5-----5-----5-----5---|------5------5------5------5-------|
G-----5-----5-----5-----5---|------5------5------5------5-------|
D---------------------------|-----------------------------------|
A--3-----3-----3-----3------|--3------3-------3------3----------|
E---------------------------|-----------------------------------|

 CSUS                           CSUS
feel I'm falling               down
E------3----3-----3-----3---|------3------3------3------3-------|
B------5----5-----5-----5---|------5------5------5------5-------|
G---------------------------|-----------------------------------|
D---------------------------|-----------------------------------|
A--3-----3-----3-----3------|--3------3-------3------3----------|
E---------------------------|-----------------------------------|


CHORUS: STRUMMED
F              
I could say it but you wont believe me
     CSUS                G(barre)
You say you do but you don't deceive me
Am      
Its hard to know they're out there
C
Its hard to know that you still care
F
I could say it but you wont believe me
CSUS                     G barred
You say you do but you don't deceive me
C       (hammer off D on Are then back on)
Dead hearts are everywhere
Am
Dead hearts are everywhere

BREAK

         F         G               F
E---------------------------|--------------------------------|
B------1-----1--------------|--------------------------------|
G------2-----2-----4--4-----|----2----2---------0------------|
D------------------5--5-----|----3----3----------------------|
A------3-----3-----5--5-----|----3----3----------------------|
E---------------------------|--------------------------------|

 F                                F
E---------------------------|-------------------------------|
B---------------------------|-------------------------------|
G-----2-----2-----2-----2---|-----2-----2-----2-----2-------|
D-----3-----3-----3-----3---|-----3-----3-----3-----3-------|
A--3-----3-----3-----3------|--3-----3-----3-----3----------|
E---------------------------|-------------------------------|  
            
   CSUS                                G
E---------------------------|-----------------------------------|
B-----5-----5-----5-----5---|------3------3------3------3-------|
G-----5-----5-----5-----5---|------4------4------4------4-------|
D---------------------------|-----------------------------------|
A--3-----3-----3-----3------|--5------5-------5------5----------|
E---------------------------|-----------------------------------|

    Am                           Am 
E---------------------------|-----------------------------------|
B-----1-----1-----1-----1---|------1------1------1------1-------|
G-----2-----2-----2-----2---|------2------2------2------2-------|
D---------------------------|-----------------------------------|
A--0-----0-----0-----0------|--0------0-------0------0----------|
E---------------------------|-----------------------------------|

 C                              C
E------0----0-----0-----0---|------0------0------0------0-------|
B------1----1-----1-----1---|------1------1------1------1-------|
G---------------------------|-----------------------------------|
D---------------------------|-----------------------------------|
A--3-----3-----3-----3------|--3------3-------3------3----------|
E---------------------------|-----------------------------------|


VERSE 4: PLUCKED (SAME AS VERSES)

Did you touch them?
Did you hold them?
Did they follow you to town?
They make me feel I'm falling down
They make me feel I'm falling down

Verse 5: PLUCKED

Was there one you saw too clearly?
Did they seem too real to you?
They were kids that I once knew
They were kids that I once knew

CHORUS: STRUMMED
I could say it but you wont believe me
You say you do but you don't deceive me
Its hard to know they're out there
Its hard to know that you still care

I could say it but you wont believe me
You say you do but you don't deceive me
Dead hearts are everywhere
Dead hearts are everywhere

SMALL INSTRUMENTAL SECTION: This bit you can personalize, play around with the 
chords and see what fits best. 

END: STRUMMED (Again, same, you can personalize this bit)

They were kids that I once knew
They were kids that I once knew
Now theyre all dead hearts to you.
Now theyre all dead hearts to you.
They were kids that I once knew
They were kids that I once knew
Now theyre all dead hearts to you. (end on C)
Comments