Starland Vocal Band - Afternoon Delight Chords & Tabs

 

Afternoon Delight Chords & Tabs

Starland Vocal Band Chords & Tabs

Version: 1 Type: Bass Tab 0 ratings
1 star 2 stars 3 stars 4 stars 5 stars
comments

Afternoon Delight Bass Tab

   
Afternoon Delight
Starland Vocal Band

4/4 time, standard tuning.

Intro
 ||----------|----------|----------|-----------|
4||-3--------|-3--------|-3--------|-3------R--|
4||----------|----------|----------|-----------|
 ||----------|----------|----------|-----------|

Verse  (Gonna find my baby...)
|-----------|-----------|-----------|-----------|
|-----------|-----------|------0----|------0----|
|------3----|------3----|-----------|-----------|
|-1---------|-1---------|-3---------|-3---------|

|-----------|-----------|-----------|-----------|
|-----------|-----------|------0----|------0----|
|------3----|------3----|-----------|-----------|
|-1---------|-1---------|-3---------|-3---------|

|-----------|-----------|-----------|-----------|
|-----------|-----------|-0----0----|-----------|
|------3----|------3----|-----------|-1---------|
|-1---------|-1---------|-----------|------3----|

|-----------|-----------|-----------|-----------|
|-----------|-----------|-0---------|-----------|
|------3----|------3----|------1----|-0---------|
|-1---------|-1---------|-----------|------3----|

Pre-chorus  (Thinking of you...)
|------------|-----------|-----------|-----------|
|*-----------|-----------|------0----|------0----|
|*------3----|------3----|-----------|-----------|
|--1---------|-1---------|-3---------|-3---------|

|-----------|-----------|-----------|-----------|
|-----------|-----------|------0----|------0----|
|------3----|------3----|-----------|-----------|
|-1---------|-1---------|-3---------|-3---------|

Chorus  (Sky rockets in flight...)
|-----------|-------------|-----------|-----------|
|-----------|-------------|-----------|-0---------|
|------3----|-------------|-3----0----|------0----|
|-1---------|-1--0--1--R--|-----------|-----------|
[ Tab from: http://www.guitartabs.cc/tabs/s/starland_vocal_band/afternoon_delight_btab.html ]
|-----------|-----------|------------|-----------|
|-0---------|-----------|------------|-----------|
|------0----|------0----|-1----3-----|------3----|
|-----------|-3---------|---------1--|-1---------|

|-----------|-----------|------------|-----------|------------|
|-----------|-----------|------------|-----------|-----------*|
|------3----|------0----|-1----3-----|------3----|------3----*|
|-1---------|-3---------|---------1--|-1---------|-1----------|

Verse  (Be waiting for me...)
|-----------|-----------|-----------|-----------|
|-----------|-----------|-----------|-----------|
|------3----|------0----|-1----0----|------0----|
|-1---------|-3---------|-----------|-3---------|

|-----------|-----------|-----------|-----------|------------|
|-----------|-----------|-----------|-----------|------------|
|-1----0----|------0----|-1----0----|------3----|-1----0-----|
|-----------|-3---------|-----------|-3---------|---------3--|

Outro  (A-a-a-afternoon delight...)
|-----------|-----------|-----------|-----------|
|-----------|-----------|-----------|-----------|
|------3----|-----------|-0----0----|-1----1----|
|-1---------|-3----3----|-----------|-----------|

|-----------|-----------|-----------|
|-----------|-----------|-----------|
|-3---------|-----------|-----------|
|------0----|-1----0----|-1----0----|

|---------------|---------------|-0----0----|-0--------|
|-0---------0-2-|-2-------0-2-3-|-----------|----------|
|----3--1-3-----|----3--3-------|-----------|----------|
|---------------|---------------|-----------|----------|

|-0--0-0--0------|-------------|----------||
|----------------|-------------|-0--------||
|-----------3-3--|----------0--|---3------||
|----------------|-R----0-1----|-----0----||



Whole note:  |-1--------|
Dotted half: |-1------|
Half note:   |-1----|
Quarter note:|-1--|
Eighth note: |-1-|
Sixteenth:   |-1|
R=rest (rests work the same way)
New measure: |-
             |-
             |-
             |-

Should be at least 99% correct. Question, comments: sk8now22@sbcglobal.net
Comments