Star Wars - Star Wars Themes Chords & Tabs

 

Star Wars Themes Chords & Tabs

Star Wars Chords & Tabs

Version: 1 Type: Tab 0 ratings
1 star 2 stars 3 stars 4 stars 5 stars
comments

Star Wars Themes Tab

			
             888888888888888   88888      8888888
            8888888888888888  8888888     88888888
             888     888     8888 8888    888  888
              888    888    88888888888   8888888
        8888888888   888   8888888888888  88888888888888
        888888888    888  8888       8888 888  888888888

        8888   888   8888 88888      8888888    88888888
         8888 88888 8888 8888888     88888888  888888888
          8888888888888 8888 8888    888  888   888
           88888888888 88888888888   8888888     888
            8888 8888 8888888888888  8888888888888888
             88   88 8888       8888 888  8888888888

	      O  P  E  N  I  N  G    T  H  E  M  E

Transcribed by: Lee Butler
E-mail: Countbutty@hotmail.com
Notes: Pretty easy song. Had to be tabbed out because it sounds great
on the films. Sounds great with distortion. You will have to sort out
the timing for your self as i dont know how you put that down on 
tabulature. Do you like my logo i did? :)

[ Tab from: http://www.guitartabs.cc/tabs/s/star_wars/star_wars_themes_tab.html ]
	e|-------|--------3---|-------3---|------------|
	B|-------|-3-1-0----3-|-3-1-0---3-|-3-1-0-1----|
	G|-----0-|------------|-----------|---------2--| *2  
	D|-0-0---|------------|-----------|------------|
	A|-------|------------|-----------|------------|
	E|-------|------------|-----------|------------|


	e|---------|---------------------|---------|-------------|
	B|---------|-1-0-----------------|---------|-1-0-----3---|
	G|---------|-----2-0-0-2-4-2-----|---------|-----2-0---2-|
	D|-0-0-2-2-|-----------------2-4-|-0-0-2-2-|-------------|
	A|---------|---------------------|---------|-------------|
	E|---------|---------------------|---------|-------------|


	e|---------|--------------------|-----3-1----------------|
	B|---------|--------------------|-3-3-----4-3-1-0-----3--|
	G|---------|-1-0----------------|-----------------2-0----|
	D|---------|-----2-0-0-2-4-2----|------------------------|
	A|-0-0-2-2-|-----------------2-4|------------------------|
	E|---------|--------------------|------------------------|


           T  H  E      I  P  E  R  I  A  L      M  A  R  C  H

Another kool little lick that i had a look at. See what you think.
Again you have to sort the timing out yourself.

	e|-------|-------|-------|-------|--------|--------------|
	B|-------|-------|-------|-------|--------|--------------|
	G|-------|-------|-------|-------|--------|--------------|
	D|-2-2-2-|---5-2-|---5-2-|-9-9-9-|-10-5-2-|---5-2--------|
	A|-0-0-0-|-3-3-0-|-3-3-0-|-7-7-7-|-8--3-0-|-3-3-0--------|
	E|-------|-1-----|-1-----|-------|--------|-1------------|
Comments