Star Wars - Star Wars Chords & Tabs

 

Star Wars Chords & Tabs

Star Wars Chords & Tabs

Version: 1 Type: Tab 3 ratings
1 star 2 stars 3 stars 4 stars 5 stars
comments

Star Wars Tab

Got got the tab from sumwhere but was wrong, also had not enough on it so i jus figured out the rest.

 ------------------------------------------
 ------------------------------------------
 ----------------------7-7-7-7-8-----------
 -5-5-5-5---8-5---8-5------------8-----8-5-
 ---------6-----6------------------9-6-----
 ------------------------------------------
[ Tab from: http://www.guitartabs.cc/tabs/s/star_wars/star_wars_tab.html ]
 ------------------------------------------
 ------------------------------------------
 ---9---9-8-7-6-5-6------------------------
 -----5--------------5-8-7-6-5-4-5---------
 ------------------------------------------
 ------------------------------------------

 ------------------------------------------
 ------------------------------------------
 ------------------------------------------
 ---8-5---8-5---------8(h)----5(h)---------
 -6-----6-------6(h)-----------------------
 ------------------------------------------

(h)=hold
Comments