Star Wars - Episode 2 Theme Chords & Tabs

 

Episode 2 Theme Chords & Tabs

Star Wars Chords & Tabs

Version: 1 Type: Tab 0 ratings
1 star 2 stars 3 stars 4 stars 5 stars
comments

Episode 2 Theme Tab

Tabbed by Scott Wailes (10Ashiz)
i've corrected this from last times version
e  ---------1--------------------------------------------------------
B  -4---1-------4---3---4---1---4---3---1---3------------------------
G  ---------------------------------------------3---5---3---0--------


e  -------------------------1-------3---1---3------------------------
B  -----4---1---1---3---4-------3------------------------------------
G  -0----------------------------------------------------------------

[ Tab from: http://www.guitartabs.cc/tabs/s/star_wars/episode_2_theme_tab.html ]
e  -----1----------------------------------1-----------------------3-
B  -1------4---3---1---1---3---4---4---1-------4---3---1---0---3-----
G  ------------------------------------------------------------------


e  -3---7---4---3---1---1---3---4---4---1---7---4---3---1---0---3---8
B  ------------------------------------------------------------------
G  ------------------------------------------------------------------

Strong Part
e  -8-----------6----------------------------------------------------
B  -----9---6-------9---8---9---6---9---8---6---8--------------------
G  -------------------------------------------------8---10---8-------


e  -------------------------6-------8---6---8------------------------
B  -----9---6---6---8---9-------8------------------------------------
G  -5----------------------------------------------------------------
 
Comments