Star Wars - Darth Vadar Theme Chords & Tabs

 

Darth Vadar Theme Chords & Tabs

Star Wars Chords & Tabs

Version: 1 Type: Tab 0 ratings
1 star 2 stars 3 stars 4 stars 5 stars
comments

Darth Vadar Theme Tab

1-------------------------------------------------------
2-------------------------------------------------------
3--------------7---------------7------------------------
4-9-9-9----5---7----9----5-----7---5--------------------
5-9-9-9----5---5----9----5-----5---5--------------------
6-7-7-7----3--------7----3---------3--------------------
[ Tab from: http://www.guitartabs.cc/tabs/s/star_wars/darth_vadar_theme_tab.html ]
1-------------------------------------------------------
2-------------------------------------------------------
3--7--7--7-----10--5--4-------7-------------------------
4--7--7--7-----10--5--4---5---7---9---------------------
5--9--9--9-----8---3--2---5---5---9---------------------
6-------------------------3-------7---------------------

thats it its not wrong so you dont need to e-mail me
Comments