Stapp Scott - The Great Divide Chords & Tabs

 

The Great Divide Chords & Tabs

Stapp Scott Chords & Tabs

Version: 1 Type: Bass Tab 0 ratings
1 star 2 stars 3 stars 4 stars 5 stars
comments

The Great Divide Bass Tab

   
Song: The Great Divide
Artist: Scott Stapp
Album: The Great Divide
Tabbed by: Derek5272

Verse 1

G|----------------------
D|----------------------
A|-5-5/10-10/12-5-5/10\-
E|----------------------

G|-----------------------------------------------------
D|-----------------------------------------------------
A|-5-5-5-5-5-5-5-5-5-5-5-5-5-5-------------------------
E|-----------------------------3-3-3-3-3-3-3-3-3-3-3-3-

G|-----------------------------------------------------
D|-----------------------------------------------------
A|-5-5-5-5-5-5-5-5-5-5-5-5-5-5-------------------------
E|-----------------------------3-3-3-3-3-3-3-3-3-3-5-5-

G|-----------------------------------------------------
D|-----------------------------------------------------
A|-5-5-5-5-5-5-5-5-5-5-5-5-5-5-------------------------
E|-----------------------------3-3-3-3-3-3-3-3-3-3-3-3-

Chorus 1

G|-------------------------------------------------
D|-------------------------------------------------
A|-5-5-5-5-5-5-5-5-5-5-5-5-------------------------
E|-------------------------3-3-3-3-3-3-3-3-3-3-3-3-

G|-------------------------------------------------
D|-------------------------------------------------
A|-2-2-2-2-2-2-2-2-2-2-2-2-------------------------
E|-------------------------5-5-5-5-5-5-5-5-5-5-5-5-

G|-------------------------------------------------
D|-------------------------------------------------
A|-5-5-5-5-5-5-5-5-5-5-5-5-------------------------
E|-------------------------3-3-3-3-3-3-3-3-3-3-3-3-

G|--------------------------------------------------
D|--------------------------------------------------
A|-2-2-2-2-2-2-2-2-2-2-2-2-------------------/7-5-4-
E|-------------------------5-5-5-5-5-5-5-5-5--------

G|-------------------------
D|-------------------------
A|-5-5-5-5-5-5-5-5-5-5-5-5-
E|-------------------------

Verse 2

G|---------------
D|---------------
A|-5-5/10-10/12\-
E|---------------

G|-----------------------------------------------------
D|-----------------------------------------------------
A|-5-5-5-5-5-5-5-5-5-5-5-5-5-5-------------------------	x3
E|-----------------------------3-3-3-3-3-3-3-3-3-3-5-5-

G|-----------------------------------------------------
D|-----------------------------------------------------
A|-5-5-5-5-5-5-5-5-5-5-5-5-5-5-----------------------4-
E|-----------------------------3-3-3-3-3-3-3-3-3-3-5---

Chorus 2

G|-------------------------------------------------
D|-------------------------------------------------
A|-5-5-5-5-5-5-5-5-5-5-5-5-------------------------
E|-------------------------3-3-3-3-3-3-3-3-3-3-5-3-
[ Tab from: http://www.guitartabs.cc/tabs/s/stapp_scott/the_great_divide_btab.html ]
G|-------------------------------------------------
D|-------------------------------------------------
A|-2-2-2-2-2-2-2-2-2-2-------------------------2-4-
E|---------------------5-3-5-5-5-5-5-5-5-5-5-5-----

G|-------------------------------------------------
D|-------------------------------------------------
A|-5-5-5-5-5-5-5-5-5-5-5-5-------------------------
E|-------------------------3-3-3-3-3-3-3-3-3-3-5-3-

G|-------------------------------------------------
D|-------------------------------------------------
A|-2-2-2-2-2-2-2-2-2-2-----------------------------
E|---------------------5-3-5-5-5-5-5-5-5-5-5-5-5-5-

G|-------------------------
D|-------------------------
A|-5-5-5-5-5-5-5-5-5-5-5-5-
E|-------------------------

Bridge

G|------------------------------------------
D|------------------------------------------
A|-5-5/10-10/12\-5/17-----5/17-17-16--------
E|--------------------5-3------------17-5-3-

G|---------------------------------------------------
D|---------------------------------------------------
A|-5-5-5-5-5-5-5-5-5-5-5-5-5-------------------------
E|---------------------------5-5-5-5-5-5-3-3-3-3-3-3-

G|---------------------------------------------------------
D|---------------------------------------------------------
A|-5-5-5-5-5-5-5-5-5-5-5-5---------------------------------
E|-------------------------5-5-5-5-5-5-5-5-3-3-3-3-3-3-3-3-

Chorus 3

G|-------------------------------------------------
D|-------------------------------------------------
A|-5-5-5-5-5-5-5-5-5-5-5-5-------------------------
E|-------------------------3-3-3-3-3-3-3-3-3-3-5-3-

G|-------------------------------------------------
D|---------------------------------------------2---
A|-2-2-2-2-2-2-2-2-2-2-----------------------5---4-
E|---------------------5-3-5-5-5-5-5-5-5-5-5-------

G|-------------------------------------------------
D|-------------------------------------------------
A|-5-5-5-5-5-5-5-5-5-5-5-5-------------------------
E|-------------------------3-3-3-3-3-3-3-3-3-2-0-2-

G|-------------------------------------------------
D|-------------------------------------------------
A|-2-2-2-2-2-2-2-2-2-2-----------------------------
E|---------------------5-3-5-5-5-5-5-5-5-5-5-5-3-5-

G|-------------------------------------------------
D|-------------------------------------------------
A|-5-5-5-5-5-5-5-5-5-5-5-5-------------------------
E|-------------------------3-3-3-3-3-3-3-3-3-3-5-3-

G|---------------------------------------------------
D|---------------------------------------------------
A|-2-2-2-2-2-2-2-2-2-2-2-4-2-------------------7-5-4-
E|---------------------------5-5-5-5-5-5-5-5-5-------

G|---------------------------------------------------
D|---------------------------------------------------
A|-5-5-5-5-5-5-5-5-5-7-5-4-5-5-5-5-5-5-5-5-5-7-5-4-5-
E|---------------------------------------------------

That's it... I may be missing a few walking lines but this is basically all there is to it.
Comments