Standing Leaf - My Solo Chords & Tabs

 

My Solo Chords & Tabs

Standing Leaf Chords & Tabs

Version: 1 Type: Tab 0 ratings
1 star 2 stars 3 stars 4 stars 5 stars
comments

My Solo Tab

   
I made this solo up but it sucks
Legend
p~pull off    /~slide up
h~hammer      \~slide down
b~bend
E|---------------------------------------------7-9-12-12b-12b--------
B|------9---7------------------------------9--------------------9/12-
G|-/11---6---9b----------------------/11-----------------------------
D|----------------9----6---6-4---------------------------------------
A|------------------------7------------------------------------------
E|-------------------------------------------------------------------

E|---14b--12h14p12---------------------------------------------------
B|-----------------------11\9----------------------------------------
G|-------------------------------------------------------------------
D|-------------------------------------------------------------------
A|-------------------------------------------------------------------
E|-------------------------------------------------------------------


Standing Leaf Rules!!!!!!!!!

[ Tab from: http://www.guitartabs.cc/tabs/s/standing_leaf/my_solo_tab.html ]
Comments