Standard 7 A - Im A Pokemaniac Chords & Tabs

 

Im A Pokemaniac Chords & Tabs

Standard 7 A Chords & Tabs

Version: 1 Type: Tab 0 ratings
1 star 2 stars 3 stars 4 stars 5 stars
comments

Im A Pokemaniac Tab

This is a good punk tune... 


|-------------------------------------------------
|-------------------------------------------------
|---------------7-7-7-----------------------7-7-7-
|-9-9-9--7-7-7--7-7-7--7-7-7--5-5-5--7-7-7--7-7-7-  x2
|-9-9-9--7-7-7--5-5-5--7-7-7--5-5-5--7-7-7--5-5-5-
|-7-7-7--5-5-5---------5-5-5--3-3-3--5-5-5--------


Pre Chorus
|------------------------------------------------
|------------------------------------------------
|---------------7-7-7----------------------------
|-9-9-9--7-7-7--7-7-7--7-7-7--5-5-5--7-7-7--9-9-9
|-9-9-9--7-7-7--5-5-5--7-7-7--5-5-5--7-7-7--9-9-9
|-7-7-7--5-5-5---------5-5-5--3-3-3--5-5-5--7-7-7


Chorus (very very fast)
|---------------------------------------------------
|---------------------------------------------------
|-----------------------------------7-7-7-7-7-7-7-7-
|-9-9-9-9-9-9-9-9--7-7-7-7-7-7-7-7--7-7-7-7-7-7-7-7-
|-9-9-9-9-9-9-9-9--7-7-7-7-7-7-7-7--5-5-5-5-5-5-5-5-
|-7-7-7-7-7-7-7-7--5-5-5-5-5-5-5-5------------------

|---------------------------------------------------
|---------------------------------------------------
|---------------------------------------------------
|-7-7-7-7-7-7-7-7--5-5-5-5-5-5-5-5--7-7-7-7-7-7-7-7-
|-7-7-7-7-7-7-7-7--3-3-3-3-3-3-3-3--5-5-5-5-5-5-5-5-
|-5-5-5-5-5-5-5-5--3-3-3-3-3-3-3-3--5-5-5-5-5-5-5-5-

|-------------------
|-------------------
|-5-5-5-5-5-5-5-5---
|-7-7-7-7-7-7-7-7---
|-5-5-5-5-5-5-5-5---
|-------------------
[ Tab from: http://www.guitartabs.cc/tabs/s/standard_7_a/im_a_pokemaniac_tab.html ]
Verse
|-------------------------------------------------
|-------------------------------------------------
|---------------7-7-7-----------------------7-7-7-
|-9-9-9--7-7-7--7-7-7--7-7-7--5-5-5--7-7-7--7-7-7-  x2
|-9-9-9--7-7-7--5-5-5--7-7-7--5-5-5--7-7-7--5-5-5-
|-7-7-7--5-5-5---------5-5-5--3-3-3--5-5-5--------


Pre Chorus
|------------------------------------------------
|------------------------------------------------
|---------------7-7-7----------------------------
|-9-9-9--7-7-7--7-7-7--7-7-7--5-5-5--7-7-7--9-9-9
|-9-9-9--7-7-7--5-5-5--7-7-7--5-5-5--7-7-7--9-9-9
|-7-7-7--5-5-5---------5-5-5--3-3-3--5-5-5--7-7-7

Chorus again... after, play chorus in palm mute form... then back to chorus and then the
ending...

|---------------------------------------------------
|---------------------------------------------------
|-----------------------------------7-7-7-7-7-7-7-7-
|-9-9-9-9-9-9-9-9--7-7-7-7-7-7-7-7--7-7-7-7-7-7-7-7-
|-9-9-9-9-9-9-9-9--7-7-7-7-7-7-7-7--5-5-5-5-5-5-5-5-
|-7-7-7-7-7-7-7-7--5-5-5-5-5-5-5-5------------------

|---------------------------------------------------
|---------------------------------------------------
|---------------------------------------------------
|-7-7-7-7-7-7-7-7--5-5-5-5-5-5-5-5--7-7-7-7-7-7-7-7-
|-7-7-7-7-7-7-7-7--3-3-3-3-3-3-3-3--5-5-5-5-5-5-5-5-
|-5-5-5-5-5-5-5-5--3-3-3-3-3-3-3-3--5-5-5-5-5-5-5-5-

|-----------------------------------------------
|-----------------------------------------------
|-5-5-5-5-5-5-5-5--7-----7-----7-7-7-7-7-7-7-7-7
|-7-7-7-7-7-7-7-7--7--7--7--7--7-7-7-7-7-7-7-7-7
|-5-5-5-5-5-5-5-5--5--7--5--7--5-5-5-5-5-5-5-5-5
|---------------------5-----5-------------------

and thats it...
Comments