Stampin Ground - The Symmetry Of Hatred Chords & Tabs

 

The Symmetry Of Hatred Chords & Tabs

Stampin Ground Chords & Tabs

Version: 1 Type: Tab 0 ratings
1 star 2 stars 3 stars 4 stars 5 stars
comments

The Symmetry Of Hatred Tab

Band: Stampin' Ground	
Song: The Symmetry of Hatred
Album: Carved From Empty Wounds
Tuning: Standard
Transcribed by Mark Kerry
e-mail: markkerry_uk@yahoo.co.uk

key

pm	palm mute
<>	pinch harmonics

intro
  guitar 1&2 x2
|-------------------------------|-------------------------------|
|-------------------------------|-------------------------------|
|-------------------------------|-------------------------------|
|-----------8--9----------------|-------------8--9--6--4--6---4-|
|-----------6--7--------------7-|-------------6--7--4--2--4---2-|
|-0-0000-0--------00--0-0--6----|-0--0000--0--------4--2--4---2-|
pm- ---- -        --  -           -  ----  -                   

  guitar 1&2 x6
|-------------------------------|-------------------------------|
|-------------------------------|-------------------------------|
|-------------------------------|-------------------------------|
|-------------------------------|-------------------------------|
|-------------7---------------6-|-------------7---------------6-|
|-0---0---6-------0---0---7-----|-0---0---6-------0---0---7-----|
pm-   -           -   -                                      

  guitar 1 x3                   then guitar 1&2 x1
|-------------------------------|------------------------------------------|
|-------------------------------|------------------------------------------|
|-------------------------------|------------------------------------------|
|-------------------------------|----------------------------------------9-|
|--------------7--------------6-|----------------------------------------7-|
|-0-0000-0-0-6---0-0000-0-0-7---|-0-0000-0-------0-0000-0-------0-0000-0---|
pm- ---- -       - ---- -         - ---- -       - ---- -       - ---- -

verse 1
  guitars 1&2 x4
|-------------------------------|-------------------------------|
|-------------------------------|-------------------------------|
|-------------------------------|-------------------------------|
|-------------------------------|-------------------------------|
|--------------7--------------6-|--------------7--------------6-|  
|-0-0000-0-0-6---0-0000-0-0-7---|-0-0000-0-0-6---0-0000-0-0-7---|
pm- ---- -       - ---- -	  - ---- -       - ---- -


  guitar 1 x1             
|-------------------------------|-------------------------------|
|-------------------------------|-------------------------------|
|-------------------------------|-------------------------------|
|-------------------------------|-------------------------------|
|-------7----------6------5--6--|-------7----------6------5--6--|
|-6--0----0--7--0-----0---3--4--|-6--0----0--7--0-----0---3--4--|
pm   -    -     -     -              -    -     -     -            

chorus
  guitar 1&2 x4             
|-------------------------------|-------------------------------|
|-------------------------------|-------------------------------|
|-------------------------------|-------------------------------|
|-------------------------------|-------------------------------|
|-------7----------6------5--6--|-------7----------6------5--6--|
|-6--0----0--7--0-----0---3--4--|-6--0----0--7--0-----0---3--4--|
pm   -    -     -     -              -    -     -     -            
    

  guitar 1 x3                   then guitar 1&2 x1
|-------------------------------|------------------------------------------|
|-------------------------------|------------------------------------------|
|-------------------------------|------------------------------------------|
|-------------------------------|----------------------------------------9-|
|--------------7--------------6-|----------------------------------------7-|
|-0-0000-0-0-6---0-0000-0-0-7---|-0-0000-0-------0-0000-0-------0-0000-0---|
pm- ---- -       - ---- -         - ---- -       - ---- -       - ---- -   
[ Tab from: http://www.guitartabs.cc/tabs/s/stampin_ground/the_symmetry_of_hatred_tab.html ]
verse 2
  guitars 1&2 x4
|-------------------------------|-------------------------------|
|-------------------------------|-------------------------------|
|-------------------------------|-------------------------------|
|-------------------------------|-------------------------------|
|--------------7--------------6-|--------------7--------------6-|  
|-0-0000-0-0-6---0-0000-0-0-7---|-0-0000-0-0-6---0-0000-0-0-7---|
pm- ---- -       - ---- -	  - ---- -       - ---- -


  guitar 1 x1             
|-------------------------------|-------------------------------|
|-------------------------------|-------------------------------|
|-------------------------------|-------------------------------|
|-------------------------------|-------------------------------|
|-------7----------6------5--6--|-------7----------6------5--6--|
|-6--0----0--7--0-----0---3--4--|-6--0----0--7--0-----0---3--4--|
pm   -    -     -     -              -    -     -     -            

chorus 2
  guitar 1&2 x4             
|-------------------------------|-------------------------------|
|-------------------------------|-------------------------------|
|-------------------------------|-------------------------------|
|-------------------------------|-------------------------------|
|-------7----------6------5--6--|-------7----------6------5--6--|
|-6--0----0--7--0-----0---3--4--|-6--0----0--7--0-----0---3--4--|
pm   -    -     -     -              -    -     -     -    
 
bridge
  guitar 1 x1						    Pinch H.......
|-------------------------------|------------------------------------------|
|-------------------------------|------------------------------------------|
|-------------------------------|------------------------------------------|
|-------------------------------|----------------------------------<3>-<2>-|
|-2--22--5--3--22-2-2-2-2--3--2-|-4-5---2--22--5--3--2-2-2------3-2--------|
|-0--00--3--1--00-0-0-0-0--1--0-|-2-3---0--00--3--1--0-0-0--3-2------------|
pm   --        --   -   -     -            --        - - -       

  guitar 1&2 x4						    Pinch H.......
|-------------------------------|------------------------------------------|
|-------------------------------|------------------------------------------|
|-------------------------------|------------------------------------------|
|-------------------------------|----------------------------------<3>-<2>-|
|-2--22--5--3--22-2-2-2-2--3--2-|-4-5---2--22--5--3--2-2-2------3-2--------|
|-0--00--3--1--00-0-0-0-0--1--0-|-2-3---0--00--3--1--0-0-0--3-2------------|
pm   --        --   -   -     -            --        - - -           


  guitar 1 x3                   then guitar 1&2 x1
|-------------------------------|------------------------------------------|
|-------------------------------|------------------------------------------|
|-------------------------------|------------------------------------------|
|-------------------------------|----------------------------------------9-|
|--------------7--------------6-|----------------------------------------7-|
|-0-0000-0-0-6---0-0000-0-0-7---|-0-0000-0-------0-0000-0-------0-0000-0---|
pm- ---- -       - ---- -         - ---- -       - ---- -       - ---- -   

chorus 3
  guitar 1&2 x4             
|-------------------------------|-------------------------------|
|-------------------------------|-------------------------------|
|-------------------------------|-------------------------------|
|-------------------------------|-------------------------------|
|-------7----------6------5--6--|-------7----------6------5--6--|
|-6--0----0--7--0-----0---3--4--|-6--0----0--7--0-----0---3--4--|
pm   -    -     -     -              -    -     -     -         

outro x1
|-------------------------------|
|-------------------------------|
|-------------------------------|
|-------------------------------|
|-5--2--------------------------|
|-3--0--------------------------|
Comments