Stallions - K?r Dag Chords & Tabs

 

K?r Dag Chords & Tabs

Stallions Chords & Tabs

Version: 1 Type: Chords 0 ratings
1 star 2 stars 3 stars 4 stars 5 stars
comments

K?r Dag Chords

   
Stallions - Kår dag (Vegard Olsen)
Først spela giatren alaina

Em D C  
Em D C

So bli trommenne og bassen me

Em   D C   D  
Em   D C   D
G      D     

Vers 1: 
Em                     D  C
Kår dag fere soli vekk,
C                         D Em
so ein liten stygg føflekk.
Em                  D  C
uten dan so e me dø,
C                        D    G
for dan varma kalde snø.
G                     D                             Em
Snøen dan e kvit, og dan e gud sin shit

Em   D C   D

Vers 2:
Em                        D  C   
kår dag kan eg vera rød,
C                         D Em
for du er ein venn i nød,
Em                           D  C    
Om problemane visa seg,
C                         D   G
dao e du ogso me meg,
G                             D                                    Em
for eg hata nemleg deg, kjere gud du svikta meg.

REF:

e:-------------------------------------------------------------------|
B:-------------------------------------------------------------------|
G:-------------------------------------------------------------------|
D:-------------------------------------------------------------------|
A:-----2-------2-------2-------2-------0-------0-------3------3---0--|
E:-0-0---0-0-0---0-3-3---3-3-3---3-2-2---2-2-2---2-0-0---0-0-0--2----|

e:-------------------------------------------------------------------|
B:-------------------------------------------------------------------|
G:-------------------------------------------------------------------|
D:-------------------------------------------------------------------|
A:-----2-------2-------2-------2-------0-------0-------3------3---0--|
E:-0-0---0-0-0---0-3-3---3-3-3---3-2-2---2-2-2---2-0-0---0-0-0--2----|

e:----------------------------------------------------------------------|
B:----------------------------------------------------------------------|
G:----------------------------------------------------------------------|
D:----------------------------------------------------------------------|
A:-2-2-2-2-2-2-2-2--2-2-2-2-2-2-2-2--0-0-0-0-0-0-0-0--3-3-3-3-3-3—-0-0--|
E:-0-0-0-0-0-0-0-0--3-3-3-3-3-3-3-3--2-2-2-2-2-2-2-2--0-0-0-0-0-0--2-2--|

e:----------------------------------------------------------------------|
B:----------------------------------------------------------------------|
G:----------------------------------------------------------------------|
D:----------------------------------------------------------------------|
A:-2-2-2-2-2-2-2-2--2-2-2-2-2-2-2-2--0-0-0-0-0-0-0-0--3-3-3-3-3-3—-0-0--|
E:-0-0-0-0-0-0-0-0--3-3-3-3-3-3-3-3--2-2-2-2-2-2-2-2--0-0-0-0-0-0--2-2--|

LITEN TROMME SOLO

Vers 3:
Em                       D  C   
kår dag smelle lyne ne,
C                     D Em
ne te gud i hellvete,
Em                            D  C   
stakkars gud han blir jo dø,
C                    D G
akurat so rista brø,
G                         D                          Em
slao meg te eg blør, slao meg te eg dør.

Em   D C   D

Vers 4:
Em                     D  C   
kår dag sitte eg å ler,
C                         D Em
me ein gut so ikkje ser,
Em                           D  C   
stakkars kar, han e so rar,
C                      D G
sure mor og graie far,
G                     D                         Em
brorn e satanist, og søstao nynasist.

REF.
[ Tab from: http://www.guitartabs.cc/tabs/s/stallions/kr_dag_crd.html ]
e:-------------------------------------------------------------------|
B:-------------------------------------------------------------------|
G:-------------------------------------------------------------------|
D:-------------------------------------------------------------------|
A:-----2-------2-------2-------2-------0-------0-------3------3---0--|
E:-0-0---0-0-0---0-3-3---3-3-3---3-2-2---2-2-2---2-0-0---0-0-0--2----|

e:-------------------------------------------------------------------|
B:-------------------------------------------------------------------|
G:-------------------------------------------------------------------|
D:-------------------------------------------------------------------|
A:-----2-------2-------2-------2-------0-------0-------3------3---0--|
E:-0-0---0-0-0---0-3-3---3-3-3---3-2-2---2-2-2---2-0-0---0-0-0--2----|

e:----------------------------------------------------------------------|
B:----------------------------------------------------------------------|
G:----------------------------------------------------------------------|
D:----------------------------------------------------------------------|
A:-2-2-2-2-2-2-2-2--2-2-2-2-2-2-2-2--0-0-0-0-0-0-0-0--3-3-3-3-3-3—-0-0--|
E:-0-0-0-0-0-0-0-0--3-3-3-3-3-3-3-3--2-2-2-2-2-2-2-2--0-0-0-0-0-0--2-2--|

e:----------------------------------------------------------------------|
B:----------------------------------------------------------------------|
G:----------------------------------------------------------------------|
D:----------------------------------------------------------------------|
A:-2-2-2-2-2-2-2-2--2-2-2-2-2-2-2-2--0-0-0-0-0-0-0-0--3-3-3-3-3-3—-0-0--|
E:-0-0-0-0-0-0-0-0--3-3-3-3-3-3-3-3--2-2-2-2-2-2-2-2--0-0-0-0-0-0--2-2--|


So kjemme eit lite vers, ikkje bass og lite tromme
Spel da du ser pao streing e, mens du teke arkordane nedafør…. (rolig)
  
e:---3------3-3-2----3----3-3-2-----3-------3-3-2----3-----3-3-2-------|
B:---------------------------------------------------------------------|
G:---------------------------------------------------------------------|
D:---------------------------------------------------------------------|
A:---------------------------------------------------------------------|
E:---------------------------------------------------------------------|
   Em                 D        C                 D          Em                     D         C                  D         G       D


REF
e:-------------------------------------------------------------------|
B:-------------------------------------------------------------------|
G:-------------------------------------------------------------------|
D:-------------------------------------------------------------------|
A:-----2-------2-------2-------2-------0-------0-------3------3---0--|
E:-0-0---0-0-0---0-3-3---3-3-3---3-2-2---2-2-2---2-0-0---0-0-0--2----|

e:-------------------------------------------------------------------|
B:-------------------------------------------------------------------|
G:-------------------------------------------------------------------|
D:-------------------------------------------------------------------|
A:-----2-------2-------2-------2-------0-------0-------3------3---0--|
E:-0-0---0-0-0---0-3-3---3-3-3---3-2-2---2-2-2---2-0-0---0-0-0--2----|

e:----------------------------------------------------------------------|
B:----------------------------------------------------------------------|
G:----------------------------------------------------------------------|
D:----------------------------------------------------------------------|
A:-2-2-2-2-2-2-2-2--2-2-2-2-2-2-2-2--0-0-0-0-0-0-0-0--3-3-3-3-3-3—-0-0--|
E:-0-0-0-0-0-0-0-0--3-3-3-3-3-3-3-3--2-2-2-2-2-2-2-2--0-0-0-0-0-0--2-2--|

e:----------------------------------------------------------------------|
B:----------------------------------------------------------------------|
G:----------------------------------------------------------------------|
D:----------------------------------------------------------------------|
A:-2-2-2-2-2-2-2-2--2-2-2-2-2-2-2-2--0-0-0-0-0-0-0-0--3-3-3-3-3-3—-0-0--|
E:-0-0-0-0-0-0-0-0--3-3-3-3-3-3-3-3--2-2-2-2-2-2-2-2--0-0-0-0-0-0--2-2--|

Slutta med ein D
Comments