Stallions - K?r Dag Chords & Tabs

 

K?r Dag Chords & Tabs

Stallions Chords & Tabs

Version: 1 Type: Bass Tab 2 ratings
1 star 2 stars 3 stars 4 stars 5 stars
comments

K?r Dag Bass Tab

Stallions – Kår Dag (Vegard Olsen)
Først spela gitaren litt alaina
Bass bejønna nå trommenen bejønna
 
Vers 1.
|-------------------------------------|
|-------------------------------------|
|-----------------5-3-3-3-3-3-3-3-3-5-|
|-0-0-0-0-0-0-0-0---------------------|

|-------------------------------------|---------------------------------|
|-------------------------------------|---------------------------------|
|-----------------5-3-3-3-3-3-3-3-3-5-|-----------------5-5-5-5-5-5-5-5-|
|-0-0-0-0-0-0-0-0---------------------|-3-3-3-3-3-3-3-3-----------------|

|-------------------------------------|
|-------------------------------------|
|-----------------5-3-3-3-3-3-3-3-3-5-|
|-0-0-0-0-0-0-0-0---------------------|

|-------------------------------------|---------------------------------|
|-------------------------------------|---------------------------------|
|-----------------5-3-3-3-3-3-3-3-3-5-|-----------------5-5-5-5-5-5-5-5-|
|-0-0-0-0-0-0-0-0---------------------|-3-3-3-3-3-3-3-3-----------------|

|-------------------------------------|
|-------------------------------------|
|-----------------5-3-3-3-3-3-3-3-3-5-|
|-0-0-0-0-0-0-0-0---------------------|

|-------------------------------------|---------------------------------|
|-------------------------------------|---------------------------------|
|-----------------5-3-3-3-3-3-3-3-3-5-|-----------------5-5-5-5-5-5-5-5-|
|-0-0-0-0-0-0-0-0---------------------|-3-3-3-3-3-3-3-3-----------------|

REF
|------------------------------------------------------------------|
|------------------------------------------------------------------|
|------------------------------------------------------------------|
|--0-0-0-0-0-0-0-0-3-3-3-3-3-3-3-3-2-2-2-2—2-2-2-2-0-0-0-0-0-0-2-2-|

|------------------------------------------------------------------|
|------------------------------------------------------------------|
|------------------------------------------------------------------|
|--0-0-0-0-0-0-0-0-3-3-3-3-3-3-3-3-2-2-2-2—2-2-2-2-0-0-0-0-0-0-2-2-|

|------------------------------------------------------------------|
|------------------------------------------------------------------|
|------------------------------------------------------------------|
|--0-0-0-0-0-0-0-0-3-3-3-3-3-3-3-3-2-2-2-2—2-2-2-2-0-0-0-0-0-0-2-2-|

|------------------------------------------------------------------|
|------------------------------------------------------------------|
|------------------------------------------------------------------|
|--0-0-0-0-0-0-0-0-3-3-3-3-3-3-3-3-2-2-2-2—2-2-2-2-0-0-0-0-0-0-2-2-|

Vers 2.
|-------------------------------------|
|-------------------------------------|
|-----------------5-3-3-3-3-3-3-3-3-5-|
|-0-0-0-0-0-0-0-0---------------------|

|-------------------------------------|---------------------------------|
|-------------------------------------|---------------------------------|
|-----------------5-3-3-3-3-3-3-3-3-5-|-----------------5-5-5-5-5-5-5-5-|
|-0-0-0-0-0-0-0-0---------------------|-3-3-3-3-3-3-3-3-----------------|

|-------------------------------------|
|-------------------------------------|
|-----------------5-3-3-3-3-3-3-3-3-5-|
|-0-0-0-0-0-0-0-0---------------------|

|-------------------------------------|---------------------------------|
|-------------------------------------|---------------------------------|
|-----------------5-3-3-3-3-3-3-3-3-5-|-----------------5-5-5-5-5-5-5-5-|
|-0-0-0-0-0-0-0-0---------------------|-3-3-3-3-3-3-3-3-----------------|

|-------------------------------------|
|-------------------------------------|
|-----------------5-3-3-3-3-3-3-3-3-5-|
|-0-0-0-0-0-0-0-0---------------------|

|-------------------------------------|---------------------------------|
|-------------------------------------|---------------------------------|
|-----------------5-3-3-3-3-3-3-3-3-5-|-----------------5-5-5-5-5-5-5-5-|
|-0-0-0-0-0-0-0-0---------------------|-3-3-3-3-3-3-3-3-----------------|
[ Tab from: http://www.guitartabs.cc/tabs/s/stallions/kr_dag_btab.html ]
REF
|------------------------------------------------------------------|
|------------------------------------------------------------------|
|------------------------------------------------------------------|
|--0-0-0-0-0-0-0-0-3-3-3-3-3-3-3-3-2-2-2-2—2-2-2-2-0-0-0-0-0-0-2-2-|

|------------------------------------------------------------------|
|------------------------------------------------------------------|
|------------------------------------------------------------------|
|--0-0-0-0-0-0-0-0-3-3-3-3-3-3-3-3-2-2-2-2—2-2-2-2-0-0-0-0-0-0-2-2-|

|------------------------------------------------------------------|
|------------------------------------------------------------------|
|------------------------------------------------------------------|
|--0-0-0-0-0-0-0-0-3-3-3-3-3-3-3-3-2-2-2-2—2-2-2-2-0-0-0-0-0-0-2-2-|

|------------------------------------------------------------------|
|------------------------------------------------------------------|
|------------------------------------------------------------------|
|--0-0-0-0-0-0-0-0-3-3-3-3-3-3-3-3-2-2-2-2—2-2-2-2-0-0-0-0-0-0-2-2-|

Vers 3.
|-------------------------------------|
|-------------------------------------|
|-----------------5-3-3-3-3-3-3-3-3-5-|
|-0-0-0-0-0-0-0-0---------------------|

|-------------------------------------|---------------------------------|
|-------------------------------------|---------------------------------|
|-----------------5-3-3-3-3-3-3-3-3-5-|-----------------5-5-5-5-5-5-5-5-|
|-0-0-0-0-0-0-0-0---------------------|-3-3-3-3-3-3-3-3-----------------|

|-------------------------------------|
|-------------------------------------|
|-----------------5-3-3-3-3-3-3-3-3-5-|
|-0-0-0-0-0-0-0-0---------------------|

|-------------------------------------|---------------------------------|
|-------------------------------------|---------------------------------|
|-----------------5-3-3-3-3-3-3-3-3-5-|-----------------5-5-5-5-5-5-5-5-|
|-0-0-0-0-0-0-0-0---------------------|-3-3-3-3-3-3-3-3-----------------|

|-------------------------------------|
|-------------------------------------|
|-----------------5-3-3-3-3-3-3-3-3-5-|
|-0-0-0-0-0-0-0-0---------------------|

|-------------------------------------|---------------------------------|
|-------------------------------------|---------------------------------|
|-----------------5-3-3-3-3-3-3-3-3-5-|-----------------5-5-5-5-5-5-5-5-|
|-0-0-0-0-0-0-0-0---------------------|-3-3-3-3-3-3-3-3-----------------|

REF
|------------------------------------------------------------------|
|------------------------------------------------------------------|
|------------------------------------------------------------------|
|--0-0-0-0-0-0-0-0-3-3-3-3-3-3-3-3-2-2-2-2—2-2-2-2-0-0-0-0-0-0-2-2-|

|------------------------------------------------------------------|
|------------------------------------------------------------------|
|------------------------------------------------------------------|
|--0-0-0-0-0-0-0-0-3-3-3-3-3-3-3-3-2-2-2-2—2-2-2-2-0-0-0-0-0-0-2-2-|

|------------------------------------------------------------------|
|------------------------------------------------------------------|
|------------------------------------------------------------------|
|--0-0-0-0-0-0-0-0-3-3-3-3-3-3-3-3-2-2-2-2—2-2-2-2-0-0-0-0-0-0-2-2-|

|------------------------------------------------------------------|
|------------------------------------------------------------------|
|------------------------------------------------------------------|
|--0-0-0-0-0-0-0-0-3-3-3-3-3-3-3-3-2-2-2-2—2-2-2-2-0-0-0-0-0-0-2-2-|

so ska gitaren spela eit spessielt vers alaina
so vidt tromme me
sangen avslutta me to ref

REF
|------------------------------------------------------------------|
|------------------------------------------------------------------|
|------------------------------------------------------------------|
|--0-0-0-0-0-0-0-0-3-3-3-3-3-3-3-3-2-2-2-2—2-2-2-2-0-0-0-0-0-0-2-2-|

|------------------------------------------------------------------|
|------------------------------------------------------------------|
|------------------------------------------------------------------|
|--0-0-0-0-0-0-0-0-3-3-3-3-3-3-3-3-2-2-2-2—2-2-2-2-0-0-0-0-0-0-2-2-|
Comments