Staind - Zoe Jane Chords & Tabs

 

Zoe Jane Chords & Tabs

Staind Chords & Tabs

Version: 5 Type: Tab 0 ratings
1 star 2 stars 3 stars 4 stars 5 stars
comments

Zoe Jane Tab

I've never tabbed before, and I've only been playing since Oct. '02, so I'm not
too great at much of anything.  This is just the intro that I figured out, if its
wrong, feel free to correct.  

Also, this doesn't show the chords he plays during the chorus, as I don't know
what they are.  I tabbed this all by ear, what you see is what I've got.  If you
have corrections, post them, or email chriscardinal@msn.com.

Like I said, this is my first tab, and I really have very little guitar knowledge
and skills...  Take it with a grain of salt, but I think it plays pretty well...

tabbed by disillusioned

Staind
Zoe Jane
(14 Shades of Grey)
May 22, 2003

Standard Tuning - I *think* finger picked, could be either way

(Intro) (Drums/Bass in at 0:12)

e|----------------------------------------------------| (4x)
b|---4-----4-------6-----6------7-----7-----7-----7---|
G|-----4-----4-------6-----6------8-----8-----8-----8-|
D|----------------------------------------------------|
A|-2-----2-----2/4----4------4/6----6-----6-----6-----|
E|----------------------------------------------------|

(Verse)

e|----------------------------------------------------| (4x) (0:26)
b|---4-----4-------6-----6------7-----7-----7-----7---|
G|-----4-----4-------6-----6------8-----8-----8-----8-|
D|----------------------------------------------------|
A|-2-----2-----2/4----4------4/6----6-----6-----6-----|
E|----------------------------------------------------|

Well I want you to notice... to notice when I'm not around
and I know that your eyes see straight through me
Speak to me without a sound 

(He does something of a slide/bend from 2/4 and 4/6 at the begin of each...
Figure it out, as I'm really not too great at this)

(Chorus 0:48)

e|--------------------------------------------------------------| 
b|---11-------11------11------11------9------9------9------9----|
G|------11-------11------11------11-----10-----10-----10-----10-|
D|--------------------------------------------------------------|
A|-9-------9--------9-------9-------8------8------8------8------|
E|--------------------------------------------------------------|

                  And I want to hold you, 

e|--------------------------------------------------------------| 
b|---11-------11------11------11------4------4------4------4----|
G|------11-------11------11------11-----4------4------4------4--|
D|--------------------------------------------------------------|
A|-9-------9--------9-------9-------2------2------2------2------|
E|--------------------------------------------------------------|

Protect you from all of the        things I've already endured
[ Tab from: http://www.guitartabs.cc/tabs/s/staind/zoe_jane_tab_ver_5.html ]
e|--------------------------------------------------------------| 
b|---11-------11------11------11------9------9------9------9----|
G|------11-------11------11------11-----10-----10-----10-----10-|
D|--------------------------------------------------------------|
A|-9-------9--------9-------9-------8------8------8------8------|
E|--------------------------------------------------------------|

                   And I want to show you... 

e|--------------------------------------------------------------| 
b|---11-------11------11------11------4------4------4------4----|
G|------11-------11------11------11-----4------4------4------4--|
D|--------------------------------------------------------------|
A|-9-------9--------9-------9-------2------2------2------2------|
E|--------------------------------------------------------------|

    Show you all the things        that this life has in store for you

e|--------------------------------------------------------------| 
b|---11-------11------11------11------9------9------9------9----|
G|------11-------11------11------11-----10-----10-----10-----10-|
D|--------------------------------------------------------------|
A|-9-------9--------9-------9-------8------8------8------8------|
E|--------------------------------------------------------------|

                  And I'll always love you

e|--------------------------------------------------------------| 
b|---11-------11------11------11------4------4------4------4----|
G|------11-------11------11------11-----4------4------4------4--|
D|--------------------------------------------------------------|
A|-9-------9--------9-------9-------2------2------2------2------|
E|--------------------------------------------------------------|

     The way that a father         should love his daughter

The song goes like this:

         Intro
         Verse 
Well I want you to notice 
To notice when I'm not around
And I know that your eyes see stright through me
And speak to me without a sound

         Chorus 
And I want to hold you
Protect you from all of the things I've already endured
And I want to show you  
To show you all of the things that this life has in store for you
And I'll always love you 
The way that a father should love his daughter

          Verse 
When I walked out this morning 
I cried as I walked to the door
I cried about how long I'd be away for
I cried about leaving you all alone

         Chorus 

         Chorus tabs
Sweet Zoe Jane... (x2)

         Verse
So I wanted to say this
'Cause I wouldn't know where to begin
To explain to you what I have been through
To explain where your daddy has been

         Chorus
Comments