Staind - Zoe Jane Chords & Tabs

 

Zoe Jane Chords & Tabs

Staind Chords & Tabs

Version: 4 Type: Tab 0 ratings
1 star 2 stars 3 stars 4 stars 5 stars
comments

Zoe Jane Tab

##################################################################################
# This file is the author's own work and represents their interpretation of the  #
# song. You may only use this file for private study, scholarship, or research.  #
##################################################################################

Zoe Jane  - By Staind

Tuned 1/2 step down

Electric Guitar
12----------------|-----12------------|-------12----------------------------------------------
----------12------------ |--------14---------|----------12------------------------------------
------------- 10---------|-----------12------|-14---------14----------------------------------
---------------- 10------|--------------12---|-14------------14-------------------------------
-------------------------|--------------------|-----------------------------------------------
-------------------------|--------------------|-----------------------------------------------

Acoustic Guitar-
--------------------/-----------------------/-------------------------------------------------
-----5--------5-----/-------7--------7-----/------8--------8----------------------------------
--------0--------0--/----------0---------0-/---------0--------0-------------------------------
---------------------/-------------0--------/-------------------------------------------------
--3--------3--------/---3/5----------------/- 5/7--------7------------------------------------
---------------------/-----------------------/-----------------------------------------------

------12------------/---------12-----------/-----12------------------------------------------
---------12---------/--12--------12--------/--------14---------------------------------------
--14--------14------/- 10-----------10-----/------------12-----------------------------------
--14------------14--/--10--------------10--/----------------12-------------------------------
----------------------/-----------------------/----------------------------------------------
----------------------/------------------------/---------------------------------------------
[ Tab from: http://www.guitartabs.cc/tabs/s/staind/zoe_jane_tab_ver_4.html ]
---------------------/----------------------/------------------------------------------------
------8-------8------/------5--------5-----/---------7---------7-----------------------------
---------0--------0---/--------0--------0---/-----------0------------0-----------------------
-----------------------/----------------------/--------------0-------------------------------
---7--------7----------/--3-------3----------/---3/5-----------------------------------------
------------------------/----------------------/---------------------------------------------

--------12------------/---------------12--/-----------------12-------------------------------
------------12---------/---------12--------/------------12-----------------------------------
---14----------14------/---14--------------/------14-----------------------------------------
---14--------------14---/--14---------------/-----14-----------------------------------------
--------------------------/--------------------/---------------------------------------------
---------------------------/--------------------/--------------------------------------------

----------------------------/----------------------/-----------------------------------------
--------8-----------8-------/------8---------8----/-------8-------8--------------------------
-------------0-----------0---/--------0---------0--/---------0-------0-----------------------
------------------------------/----------------------/---------------------------------------
---5/7----------7-------------/--7--------7---------/---7------7-----------------------------



[chorus]

sweet zoe jane [x2]

(Chords)
      ebgdae  
C - xx114x  --- 10 fret
D - xx114x  ---  12 fret
Em - xx3411 ---  12 fret
G5 - x1230x ---  5 fret
D(2) - x314ox --- 9 fret
E5 - x3140x --- 7 fret
C5 - x1230x --- 10 fret

* Just a quick note that thsi song is played a half step down with the acoustic 
and witht he electric guitar its normal the begining is pretty complicated but ya! i left the chords 
with the words and alsoany questions or concerns please e-mail em at ian_hill_09@hotmail.com ok thanks a bunch and enjoy!
Comments