Staind - Zoe Jane Chords & Tabs

 

Zoe Jane Chords & Tabs

Staind Chords & Tabs

Version: 2 Type: Tab 1 rating
1 star 2 stars 3 stars 4 stars 5 stars
comments

Zoe Jane Tab

Standard Tuning

Intro/Verse
e|----------------------------------------------------| 
b|---4-----4-------6-----6------7-----7-----7-----7---|
G|-----4-----4-------6-----6------8-----8-----8-----8-|
D|----------------------------------------------------|
A|-2-----2-----2/4----4------4/6----6-----6-----6-----|
E|----------------------------------------------------|
[ Tab from: http://www.guitartabs.cc/tabs/s/staind/zoe_jane_tab_ver_2.html ]
Chorus
e|--------------------------------------------------------------| 
b|---11-------11------11------11------9------9------9------9----|
G|------11-------11------11------11-----10-----10-----10-----10-|
D|--------------------------------------------------------------|
A|-9-------9--------9-------9-------8------8------8------8------|
E|--------------------------------------------------------------|

e|--------------------------------------------------------------| 
b|---7-------7--------7-------7-------4------4------4------4----|
G|------8-------8-------8------8--------4------4------4------4--|
D|--------------------------------------------------------------|
A|-6-------6--------6-------6-------2------2------2------2------|
E|--------------------------------------------------------------|





Comments