Staind - Zoe Jane Chords & Tabs

 

Zoe Jane Chords & Tabs

Staind Chords & Tabs

Version: 11 Type: Tab 0 ratings
1 star 2 stars 3 stars 4 stars 5 stars
comments

Zoe Jane Tab

Staind: Zoe Jane

I found it easier to play the acoustic part finger picking.

/-slide

Guitar 1: Acoustic standard tuning
Guitar 2: Electric Standard tuning

verses (guitar 1)
-------------------------------------------------------|
---4-----4-------6-----6-------7-----7-----7-----7-----|
-------------------------------------------------------|
-----4-----4-------6-----6-------8-----8-----8-----8---|
-2-----2-----2/4-----4-----4/6-----6-----6-----6-----6-|
-------------------------------------------------------|

Verses (guitar 2 clean)
----------------------------------------------|
-7/9/11--------7/9----------------------------|
-------------------8--------------------------|
----------------------------------------------|
----------------------------------------------|
----------------------------------------------|
[ Tab from: http://www.guitartabs.cc/tabs/s/staind/zoe_jane_tab_ver_11.html ]
Chorus (guitar 1)
-------------------------------------------------------------|
-------------------------------------------------------------|
---11------11------11------11------9------9------9------9----|
-------------------------------------------------------------|
------11------11------11------11-----11-----11-----11-----11-|
-9-------9-------9-------9-------8------8------8------8------|

-------------------------------------------------|
-------------------------------------------------|
---7-----7-----7-----7-----4-----4-----4-----4---|
-------------------------------------------------|
-----8-----8-----8-----8-----4-----4-----4-----4-|
-6-----6-----6-----6-----2-----2-----2-----2-----|

Chorus (guitar 2 distortion)
--------------------------------------------|
--------------------------------------------|
-----7-6-5---3------------------------------|
-8-6-x-x-x-3-3------------------------------|
-8-6-5/4/3-3-1------------------------------|
-6-4-------1--------------------------------|

The interlude is the chorus played over again but with a
violin added. The last chorus and outro is just the
acoustic guitar.
Comments