Staind - Zoe Jane Acoustic Chords & Tabs

 

Zoe Jane Acoustic Chords & Tabs

Staind Chords & Tabs

Version: 1 Type: Tab 0 ratings
1 star 2 stars 3 stars 4 stars 5 stars
comments

Zoe Jane Acoustic Tab

   
Tabbed By: Mark Sanchez
Email: Sk8ELEMENT119@aol.com

Tuning: Standard

Intro/Verse (Guitar 1):

e|-----------------------------------
B|--5---5----7---7----8---8---8---8--
G|---0---0----0---0----0---0---0---0-
D|-----------------------------------
A|-3---3----5---5----7---7---7---7---
E|----------------------------------- (Repeat as many times as needed)

Chorus (Guitar 1):
[ Tab from: http://www.guitartabs.cc/tabs/s/staind/zoe_jane_acoustic_tab.html ]
e|-------------------------------------------------------------
B|---12---12---12---12---7--7--7--7---8--8--8--8---5--5--5--5--
G|-----0----0----0----0---0--0--0--0---0--0--0--0---0--0--0--0-
D|-------------------------------------------------------------
A|-10---10---10---10----5--5--5--5---7--7--7--7---3--3--3--3---
E|-------------------------------------------------------------(Repeat as many times as needed)

Chorus (Guitar 2):

e|-------------
B|-------------
G|-------------
D|-------------
A|-4--4--6--11-
E|-2--4--6--9-- (repeat as many times as needed)(you figure out the rythm)

Ending Chord (Guitar 1):

e|---
B|-8-
G|-0-
D|---
A|-7-
E|---
Comments