Staind - Waste Chords & Tabs

 

Waste Chords & Tabs

Staind Chords & Tabs

Version: 7 Type: Tab 0 ratings
1 star 2 stars 3 stars 4 stars 5 stars
comments

Waste Tab

#----------------------------------PLEASE NOTE---------------------------------#
#This file is the author's own work and represents their interpretation of the #
#song. You may only use this file for private study, scholarship, or research. #
#------------------------------------------------------------------------------#


  M.M. = 110
|----------------|----------|----------------|----|
|----------------|----------|----------------|----|
|-----------7----|-6--------|-----------6----|----|
|--h4p5-4--------|----------|--h4p5-4--------|-7--|
|-4-------4----4-|----------|-4-------4----4-|----|
|----------------|----------|----------------|----|


|-------------------|----------|-------------------|-----|
|-------------------|----------|-------------------|-----|
|-------------7-----|-6--------|-------------6-----|-----|
|---h4p5-4----------|----------|---h4p5-4----------|-7---|
|-4--------4------4-|----------|-4--------4------4-|-----|
|-------------------|----------|-------------------|-----|
|
|------9------10----|----------|------9------10----|-12--|
|----9---9--------9-|----------|----9---9--------9-|-----|
|-11-------11-------|-9--------|-11-------11-------|-----|
|-------------------|----------|-------------------|-----|
|-------------------|----------|-------------------|-----|
|-------------------|----------|-------------------|-----|


|------9------10----|----------|------9------10----|-12--|
|----9---9--------9-|----------|----9---9--------9-|-----|
|-11-------11-------|-9--------|-11-------11-------|-----|
|-------------------|----------|-------------------|-----|
|-------------------|----------|-------------------|-----|
|-------------------|----------|-------------------|-----|


|------9------9--10-|-(10)---10---9------|------9------9--10-|-(10)---10---12--------|
|----9---9----------|------9----9---9----|----9---9----------|------9----9-----------|
|-11-------11-------|-----------------9--|-11-------11-------|-----------------------|
|-------------------|--------------------|-------------------|-----------------------|
|-------------------|--------------------|-------------------|-----------------------|
|-------------------|--------------------|-------------------|-----------------------|
|
|-------------------|--------------------|-------------------|-----------------------|
|-------------------|--------------------|-------------------|-----------------------|
|----------------7--|-(7)----7----6------|----------------7--|-(7)----7----6---------|
|-4-h4p5-4-4--5--4--|-(4)--4----4---4-7--|-4-h4p5-4-4--5--4--|-(4)--4----4------x-x--|
|-4--------4--4--4--|-(4)--4-------------|-4--------4--4--4--|-(4)--4-----------x-x--|
|-------------------|--------------------|-------------------|-----------------------|


|------9------9--10-|-(10)---10---9------|------9------9--10-|-(10)---10---12--------|
|----9---9----------|------9----9---9----|----9---9----------|------9----9-----------|
|-11-------11-------|-----------------9--|-11-------11-------|-----------------------|
|-------------------|--------------------|-------------------|-----------------------|
|-------------------|--------------------|-------------------|-----------------------|
|-------------------|--------------------|-------------------|-----------------------|
|
|-------------------|--------------------|-------------------|-----------------------|
|-------------------|--------------------|-------------------|-----------------------|
|----------------7--|-(7)----7----6------|----------------7--|-(7)----7----6---------|
|-4-h4p5-4-4--5--4--|-(4)--4----4---4-7--|-4-h4p5-4-4--5--4--|-(4)--4----4------x-x--|
|-4--------4--4--4--|-(4)--4-------------|-4--------4--4--4--|-(4)--4-----------x-x--|
|-------------------|--------------------|-------------------|-----------------------|

[ Tab from: http://www.guitartabs.cc/tabs/s/staind/waste_tab_ver_7.html ]
|-----------------|----------------|-----------------|-----------------|
|-----------------|----------------|-----------------|-----------------|
|-----------------|----------------|-----------------|-----------------|
|p7-6-6-7p7-6-x-9-|-(9)----(9)-----|p7-6-6-7p7-6-x-9-|-(9)----(9)------|
|p7-6-6-7p7-6-x-9-|-(9)----(9)---x-|p7-6-6-7p7-6-x-9-|-(9)----(9)---x--|
|---------------7-|-(7)----(7)---x-|---------------7-|-(7)----(7)---x--|


|-----------------|------------|---------------------------|--------------------------|
|-----------------|------------|---------------------------|--------------------------|
|-----------------|------------|----15----12-(12)-------14-|-(14)---------------------|
|p7-6-6-7p7-6-x-9-|-(9)--------|-12---------------12-------|---------15---------------|
|p7-6-6-7p7-6-x-9-|-(9)--------|-12----12------------12----|------12----12-10-10-10---|
|---------------7-|-(7)--------|---------------------------|----------------0--0--0---|


|---------------------------|-------------------------|---------------------------|--------------------------|
|---------------------------|-------------------------|---------------------------|--------------------------|
|----15----12-(12)-------14-|-(14)-14-14--------------|----15----12-(12)-------14-|-(14)---------------------|
|-12---------------12----15-|-(15)-15-15--------17----|-12---------------12-------|---------15---------------|
|-12----12------------12----|----------------17----17-|-12----12------------12----|------12----12-10-10-10---|
|---------------------------|-------------15----------|---------------------------|----------------0--0--0---|


|---------------------------|-------------------------|---------------------------|--------------------------|
|---------------------------|-------------------------|---------------------------|--------------------------|
|----15----12-(12)-------14-|-(14)-14-14--------------|----15----12-(12)-------14-|-(14)---------------------|
|-12---------------12----15-|-(15)-15-15--------17----|-12---------------12-------|---------15---------------|
|-12----12------------12----|----------------17----17-|-12----12------------12----|------12----12-10-10-10---|
|---------------------------|-------------15----------|---------------------------|----------------0--0--0---|


|---------------------------|-------------------------|---------------------------|--------------------------|
|---------------------------|-------------------------|---------------------------|--------------------------|
|----15----12-(12)-------14-|-(14)-14-14--------------|----15----12-(12)-------14-|-(14)---------------------|
|-12---------------12----15-|-(15)-15-15--------17----|-12---------------12-------|---------15---------------|
|-12----12------------12----|----------------17----17-|-12----12------------12----|------12----12-10-10-10---|
|---------------------------|-------------15----------|---------------------------|----------------0--0--0---|


|---------------------------|--------------------------|
|---------------------------|--------------------------|
|----15----12-(12)-------14-|-(14)-14-14---------------|
|-12---------------12----15-|-(15)-15-15--------17-----|
|-12----12------------12----|----------------17----17--|
|---------------------------|-------------15-----------|


|-------------------|-----------------------|-------------------|--------------------|
|-----------------0-|-(0)---0---------------|-----------------0-|-(0)---0------------|
|---3---0-(0)-----2-|-(2)-0-2-0-------------|---3---0-(0)-----2-|-(2)-0-2-0----------|
|-0-----------0---3-|-(3)-0-3-0-------------|-0-----------0---3-|-(3)-0-3-0-5-5-5-5--|
|-0---0---------0---|-----------10-10-10-10-|-0---0---------0---|-----------5-5-5-5--|
|-------------------|------------0--0--0--0-|-------------------|-----------3-3-3-3--|


|-------------------|-----------------------|-------------------|--------------------|
|-----------------0-|-(0)---0---------------|-----------------0-|-(0)---0------------|
|---3---0-(0)-----2-|-(2)-0-2-0-------------|---3---0-(0)-----2-|-(2)-0-2-0----------|
|-0-----------0---3-|-(3)-0-3-0-------------|-0-----------0---3-|-(3)-0-3-0-5-5-5-5--|
|-0---0---------0---|-----------10-10-10-10-|-0---0---------0---|-----------5-5-5-5--|
|-------------------|------------0--0--0--0-|-------------------|-----------3-3-3-3--|
Comments