Staind - Waste Chords & Tabs

 

Waste Chords & Tabs

Staind Chords & Tabs

Version: 6 Type: Tab 0 ratings
1 star 2 stars 3 stars 4 stars 5 stars
comments

Waste Tab

"Waste"
by Staind

Drop D Tuning

This is 100% correct

Make sure you use the tone dials on your guitar to make it
sound as muted (unbright) as possible. 

h=hammer on
p=pull off
[ Tab from: http://www.guitartabs.cc/tabs/s/staind/waste_tab_ver_6.html ]
INTRO:
E|----------------------------------------------------|
B|----------------------------------------------------|
G|----------------------------------------------------|
D|--------------6-------5-----------------5-------1---|
A|------3h4p3-------3-------------3h4p3-------3-------|
D|---3-------------------------3----------------------|

*FEEDBACK*
CHORUS:
E|------------------------------------------------|
B|------------------------------------------------|
G|------------------------------------------------|
D|---6/5--x-x--6/5--5--1----6/5--x-x--6/5--5--3---|
A|---6/5--x-x--6/5--5--1----6/5--x-x--6/5--5--1---|
D|---6/5--x-x--6/5--5--1----6/5--x-x--6/5--5--1---|

im not sure about the interlude

*REPEAT CHORUS 2X*

thats pretty much it.		
Comments