Staind - Waste Chords & Tabs

 

Waste Chords & Tabs

Staind Chords & Tabs

Version: 3 Type: Tab 0 ratings
1 star 2 stars 3 stars 4 stars 5 stars
comments

Waste Tab

Staind - Waste "break the cycle"

Ok guys, dis mite not b rite, but wot the hell. it works well and dis 
is wot dey played on tour in UK. Most bits r included. soz bout the
fact it's in drop D... cannot b helped.

Intro:
E]--------------------------------||------------
B]--------------(let ring and strum as seperate notes)
G]-------1------0---0-------------||---------------
D]-----3---3----1-----1---1-------||-----------------
A]---3-------3--1-------1---1-----||-----------------
D]-3------------1-------------1---||---------------


Repeat as neccesary until chorus
[ Tab from: http://www.guitartabs.cc/tabs/s/staind/waste_tab_ver_3.html ]
Chorus: sum eejit got d notes rite but the rythmn wrong.
   V   ^V^ V ^     V
E]-------------------------------
B]-------------------------------
G]-------------------------------
D]-6\5-5-6-6\5-6---1-------------
A]-6\5-5-6-6\5-6---1-------------
D]-6\5-5-6-6\5-6---1-------------
V= down  strum ^ = up strum

Br lead in:

E]----------------------------------
B]----------------------------------
G]--------------------(7 is optional, but if ure playin wit a bassist*)
D]-11-11-11-11--9-9-9-7-----------------------
A]-11-11-11-11--9-9-9-7-----------------------
D]-11-11-11-11--9-9-9-7-------------------------

*he plays that bit
Br: MEGA DISTORTER!!!
E]----------------------------------
B]----------------------------------
G]----------------------------------
D]-11-11-11-11--9-9-9-9-----------------------
A]-11-11-11-11--9-9-9-9-----------------------
D]-11-11-11-11--9-9-9-9-------------------------


dats all folks. 100% correct in my view. ny comments or adjustments:
zebSta@hotmail.com

Rock on dudes! 
zebSta
Comments