Staind - Tolerate Chords & Tabs

 

Tolerate Chords & Tabs

Staind Chords & Tabs

Version: 1 Type: Tab 0 ratings
1 star 2 stars 3 stars 4 stars 5 stars
comments

Tolerate Tab

   
Artist: Staind
Song: Tolerate
Album: Tormented (1996)
Tabbed By: Chris Frazier (elemenohpelmnop@aol.com)
Date: 04-01-2K1

   Tuning: Drop Db (Db, Ab, Db, Gb, Bb, Eb)
   Key: /   = slide
        [x] = harmonic
        pm  = palm mute

   Intro:
  Eb|-------|
  Bb|-------|
  Gb|---[9]-|
  Db|-3-[9]-|
  Ab|-3-----|
  Db|-3-----|
[ Tab from: http://www.guitartabs.cc/tabs/s/staind/tolerate_tab.html ]
   Verse:
  Eb|--------------------------|
  Bb|--------------------------|
  Gb|--------------------------|
  Db|-7/8--0-0-3--0-3/8--0-3-0-|
  Ab|-7/8--0-0-3--0-3/8--0-3-0-|
  Db|-7/8--0-0-3--0-3/8--0-3-0-|
   pm      - -

   Chorus:
  Eb|-------------|
  Bb|-------------|
  Gb|-------------| Not on the record but, for best
  Db|-0234-32-0-3-| sound, palm mute the whole riff
  Ab|-0234-32-0-3-|
  Db|-0234-32-0-3-|
Comments