Staind - The Broken Cycle Chords & Tabs

 

The Broken Cycle Chords & Tabs

Staind Chords & Tabs

Version: 1 Type: Tab 0 ratings
1 star 2 stars 3 stars 4 stars 5 stars
comments

The Broken Cycle Tab

   
##################################################################################
# This file is the author's own work and represents their interpretation of the  #
# song. You may only use this file for private study, scholarship, or research.  #
##################################################################################

Staind- Hidden track on Dysfunction
Tabbed by Chris Downey
(If you don’t like how it sounds or don’t think it is right then E-mail me at-
Raven70449@aol.com or Bigness1234@aol.com)

This song is relatively easy to play.  I have seen this song written many different ways, but being a perfectionist, I believe I have the right way to play it.  (Not saying I’m ‘perfect’ though).  The song starts at (on the regular CD) -17:09-

Riff.1
E ||-----------------------------|---------------------------|---------------------------|----------------------------|
B ||-----------------------------|--------------------------|----------------------------|----------------------------|
G ||--------------0-------------|--------------0-----------|---------------0------------|--------------0------------|
D ||----------4------4---------|-----------4-----4--------|-----------4------4--------|-----------4------4--------|
A ||------2--------------2-----|-------2-------------2----|-------2--------------2----|-------2--------------2----|
E ||---0------------------------|---0-----------------------|---0-----------------------|---0-----------------------|


E ||----------------------------|--------------------------|-----------------------------|--------------------------|
B ||----------------------------|--------------------------|-----------------------------|--------------------------|
G ||--------------0------------|--------------0-----------|---------------0------------|--------------0-----------|
D ||----------4------4--------|-----------4-----4--------|-----------4------4--------|-----------4-----4--------|
A ||------2--------------2----|-------2-------------2----|-------2--------------2----|-------2-------------2----|
E ||---3-----------------------|---3-----------------------|---3-----------------------|---3----------------------|
Play all of that five times         End Riff.1

Chorus
(Riff.2[to make it easier])
E ||-----------------------------|----------------------------|---------------------------|--------------------------|
B ||---------------0------------|---------------0-----------|--------------0------------|--------------0-----------|
G ||-----------2------2--------|-----------2------2--------|----------0------0--------|-----------0-----0--------|
D ||-------2--------------2----|-------2--------------2----|------2--------------2----|-------2-------------2----|
A ||---0------------------------|---0-----------------------|---3-----------------------|---3----------------------|
E ||-----------------------------|----------------------------|---------------------------|--------------------------|
Play this twice           End  Riff.2
[ Tab from: http://www.guitartabs.cc/tabs/s/staind/the_broken_cycle_tab.html ]
Next play:
E ||-----------------------------|---------------------------|---------------------------|----------------------------|
B ||-----------------------------|--------------------------|----------------------------|----------------------------|
G ||--------------0-------------|--------------0-----------|---------------0------------|--------------0------------|
D ||----------4------4---------|-----------4-----4--------|-----------4------4--------|-----------4------4--------|
A ||------2--------------2-----|-------2-------------2----|-------2--------------2----|-------2--------------2----|
E ||---0------------------------|---0-----------------------|---0-----------------------|---0-----------------------|

Then play Riff.1 four times.
Afterwards, play Riff.2 (play it twice as said above)
After all of this is done play:
E ||-----------------------------|---------------------------|---------------------------|----------------------0-----|
B ||-----------------------------|--------------------------|----------------------------|------------------0---------|
G ||--------------0-------------|--------------0-----------|---------------0------------|--------------0------------|
D ||----------4------4---------|-----------4-----4--------|-----------4------4--------|-----------4----------------|
A ||------2--------------2-----|-------2-------------2----|-------2--------------2----|-------2--------------------|
E ||---0------------------------|---0-----------------------|---0-----------------------|---0------------------------|
(This part I added in because
I thought it sounded good)
It is (the last measure) actually played
E ||-----------------------------|---------------------------|---------------------------|----------------------------|
B ||-----------------------------|--------------------------|-----------------------------|-----------|
G ||--------------0-------------|--------------0-----------|---------------0------------|-----------|
D ||----------4------4---------|-----------4-----4--------|-----------4------4--------|-----------|
A ||------2--------------2-----|-------2-------------2----|-------2--------------2----|-----------|
E ||---0------------------------|---0-----------------------|---0-----------------------|---0~~~-|
Let ring
That’s the end of the song!  You did it!
========================================




==============================
Staind . . . The Broken Cycle
Dysfunction...Excess Baggage 
tabed by Hayato Imanishi
==============================


tune: drop D

verse
-----------
-----------
-----------
---3-4-3---
--1-----1--    x4
-1-------1-

-----------
-----------
-----------
---3-4-3---
--4-----4--    x4
-4-------4-

chorus
-----------
-----------
-----------
---8-9-8---
--6-----6--    x4
-6-------6-

-----------
-----------
-----------
---8-9-8---
--9-----9--    x4
-9-------9-



======================================
Tabbed by: METALMOPAR
BAND: STAIND
SONG: EVERYTHING CHANGES (ACOUSTIC)
ALBUM: CHAPTER V
======================================

E:
e|-0----
B|-0----
G|-1----
D|-2----
A|-2----
E|-0----

Asus2: 
e|-0----
B|-0----
G|-2----
D|-2----
A|-0----
E|-x----

C#m7:
e|-0----
B|-0----
G|-6----
D|-6----
A|-4----
E|-x----

Bsus4:

e|-0----
B|-0----
G|-4----
D|-4----
A|-2----
E|-x----

==========================
Title: Everything Changes
Artist: Staind
Album: Chapter V
===========================


Instrument: Guitar

Tabbed by: Snap Uguil (uguil_snap@yahoo.com)

Tuning: Standard (E A D G B E)

 Standard 1/2 step down. This is not 100% for more information just drop a line.

Acoustic Guitar Chord Pattern:
    F        Bb         Dm
E|--1--||----1----||----1----||
B|--1--||----1----||----3----||
G|--2--||----3----||----2----||
D|--3--||----3----||----0----||
A|--3--||----1----||---------||
E|--1--||---------||---------||




Comments