Staind - Take It Chords & Tabs

 

Take It Chords & Tabs

Staind Chords & Tabs

Version: 1 Type: Bass Tab 0 ratings
1 star 2 stars 3 stars 4 stars 5 stars
comments

Take It Bass Tab

   
Song: Take It
Artist: Staind
Album: Break the Cycle
Tabbed by: Kris Bell (Bellkris@hotmail.com)


Tuning  Db Ab Db Eb (drop D)
(The timing of the notes are wrong, but just listen the
song, it's easy)

Intro -
A: ------3-3------3-3------3|------3-3------3-33//5|  (X4)
D: -2-2------2-2------2-2---|-2-2------2-2---------|

Verse -
A: ----------------| (X8)  A: --------3-3---3----3| (X4)
D: --2----5-5----0-|       D: -2-2-2-----2---2-2--|

Chorus -
(This part I'm not 100% about but it sounds right)

A: 5-2------|------5-2-| (X4)
D:------5-2-|-2-5------|
[ Tab from: http://www.guitartabs.cc/tabs/s/staind/take_it_btab.html ]
Verse -
A: ---------------| (X8)      A:--------3-3---3-----3| (X4)
D: --2----5-5----0|           D:--2-2-2-----2---2-2--|

Bridge -
(Break)
A: --------3-3-3--------3-3-3--------3-3-3 |
D: -2-2-2--------2-2-2--------2-2-2--------|

A: ---3--0|--------3-3-3--------3-3-3--------3-3-3|
D: -2--5--|-2-2-2--------2-2-2--------2-2-2-------|
(Break)
A: --------3-3-3--------3-3-3--------3-3-3-|---------|
D: -2-2-2--------2-2-2--------2-2-2--------|-5-3-2-0-|

A: --------3-3-3--------3-3-3--------3-3-3|(X5)
D: -2-2-2--------2-2-2--------2-2-2-------|

Outro-
A: -----5-2-|-5-2-----|(X4)
D: -2-5-----|------5-2|
Comments